Diario de Practica de UNIREM (NOOB)

#1 por unirem el 30/06/2008
Pues estoy comenzando llevo un dia conmi guitarra y ya estoy muy feliz porque e aprendido bastante el primer dia de esta pagina http://bis.lacuerda.net/Recursos/cursoguitarra/ e leido las lecciones y ya toco el Allegro de Bethoveen, y Noche de Paz JAJA. Pero asi se empieza pues no me han salido las de Cielito Lindo apenas empiezo a moverme bien de la primera a la tercera cuerda y hasta el Tecer Traste eso es por la de Bethoveee pero en la de Noche de paz hay mas movimiento pero sigue sinedo en la primera cuerda y es muy repetido asi que para mi no hubo incoveniente asi que les dego mis primeras dos canciones aprendidad para futuros nuevos que quierantocarlas y empezar tranquilos como yo

NOCHE DE PAZ

Tonalidad: La mayor



||--0---2--0----------0---2--0----------7----7---4----4---5----5----0-------|
||-------------2-----------------2------------------------------------------|
|o--------------------------------------------------------------------------|
|o--------------------------------------------------------------------------|
||--------------------------------------------------------------------------|
||--------------------------------------------------------------------------|
1 1 1 1 4 4 1 1 2 2



|--2---2--2---5--4--2--0---2--0---------2---2--2---5--4--2--0---2--0--------|
|---------------------------------2------------------------------------2----|
|---------------------------------------------------------------------------|
|---------------------------------------------------------------------------|
|---------------------------------------------------------------------------|
|---------------------------------------------------------------------------|
1 1 1 4 3 1 1 1 1 1 1 4 3 1 1 1



|--7---7--7---10---7---4---5---s---9------5----0-------0-------------------||
|--------------------------------------------------2--------3---0----------||
|--------------------------------------------------------------------2-----o|
|--------------------------------------------------------------------------o|
|--------------------------------------------------------------------------||
|--------------------------------------------------------------------------||
1 1 1 4 1 1 2 2 4 1 2 1



|-------0----5--------||
|--2------------------||
|---------------------||
|---------------------||
|---------------------||
|---------------------||
2 4



ALLEGRO
De la Novena Sinfonía de Beethoven


|-0--0--1--3--|-3--1--0-----|----------0--|-0-----------|-0--0--1--3--|
|-------------|----------3--|-1--1--3-----|-----3-3-----|-------------|
|-------------|-------------|-------------|-------------|-------------|
|-------------|-------------|-------------|-------------|-------------|
|-------------|-------------|-------------|-------------|-------------|
|-------------|-------------|-------------|-------------|-------------|


|-3--1--0-----|----------0--|-------------|-------0-----|----0-1-0----|
|----------3--|-1--1--3-----|-3---1-1-----|-3--3-----1--|-3---------1-|
|-------------|-------------|-------------|-------------|-------------|
|-------------|-------------|-------------|-------------|-------------|
|-------------|-------------|-------------|-------------|-------------|
|-------------|-------------|-------------|-------------|-------------|


|----0-1-0----|-------------|-0--0--1--3--|-3--1--0-----|----------0--|
|-3---------3-|-1--3--------|-------------|----------3--|-1--1--3-----|
|-------------|-------0-----|-------------|-------------|-------------|
|-------------|-------------|-------------|-------------|-------------|
|-------------|-------------|-------------|-------------|-------------|
|-------------|-------------|-------------|-------------|-------------|


|-------------||
|-3---1-1-----||
|-------------||
|-------------||
|-------------||
|-------------||

Seguire aportando lo nuevo que aprendo tal cuál para yo mismo hacerme un pequeño recordatorio en el futuro peroespero y alguin me ayude a seguir aprendiedno saludos
Subir
#2 por rayn el 09/07/2008
bueno, no parece un mal diario, aunque sin duda te voy a aconsejar que hagas los siguientes ejercicios como rutina diaria obligatoria, pues yo no los hice en su día y estoy sufriendo las consecuencias :P

la cosa consiste en empezar en el traste uno y acabar en el 12 subiendo y bajando cuerdas con los siguientes patrones: 1234/4321 2341/1432 3412/2143 4123/3214, 12/21, 13/31, 14/41, 23/32, 24/42, 34/43

creo que los he escrito bien xD
Bueno, estos ejercicios lo que te darán es velocidad, mejora de pulsación, y un buen desarrollo del alternate picking (sí, así empezó Petrucci, y probablemente malmsteen xd)

COMPROBADO*

Bueno, espero que te haya sevido

Nota: estos ejercicios los primeros días los harás ahí to feliz, pero cuando pasen 2 semanas verás que empiezan a aburrirte y tenderás a dejartelos... se convierte en una situación un tanto difícil, pero solo así definirás lo que quieras hacer
Subir
#3 por pepelu91 el 09/07/2008
Gracias a los Dos. Ahora mismo empiezo con los ejercicios Rayn :)
Subir
#4 por juanmlinares el 29/07/2008
Lo que hace entretenidos y progresivos esos ejercicios es practicarlos con un metrónomo, para evaluar tu avance y conocer tus límites y mejorar cada día :D yo te recomendaría que te bajaras un libro llamado Bass Fitness, de Josquin Des Pres, que tiene muuuuchos ejercicios asi (sirven para guitarra y bajo) que dan soltura a tus manos. Yo practico esos ejercicios todos los dias, echale ganas y usa metrónomo!

:saludo:

Foto con Patrick Abbate

Subir
Respuesta rápida

Regístrate o para poder postear en este hilo