Diario de práctica del caminante

#1 por viejocaminante el 08/01/2008
Hola de nuevo a todos, como que uno se siente aquí en confianza. Hace algún tiempo que he vuelto a mis raíces y toco death metal. Esto lo hago porque siempre me ha gustado esa música y porque es más traqnuilo y mensos estresante que cuando tocaba en una banda de rock progresivo. De hecho no uso muchas técnicas, jajaj.

El asunto es que, por motivos laborales hay cosas que antes hacía y ahora ya no puedo hacer (aunque en mi cerebro creo que puedo hacerlas) como practicar ocho horas seguidas y dedicar otras dos a tocar canciones...

Sin embargo está ahí esta técnica que quiero aprender como cosa personal, el tapping de ocho dedos.

Lo que estoyu haciendo es practicar paso a paso. Les muestro un ejemplo de lo que he estado haciendo:
EJERCICIO 1
---------------------------------
---------------------------------
---------------------------------
---------------------------------
---------------------------------
---2--3--4--5--2--3--4--5-------

Solo martilleando con los cuatro dedos de las mano izquierda...

EJERCICIO DOS
------------------------------------------------------10---
-----------------------------------10--------------10---10----
-------------10-----------------10---10---------10--------10-
----------10----10-----------10--------10----10-------------
------10-----------10-----10--------------10------------------
--10------------------10--------------------------------------


Aqui uso el martilleo solo con la mano derecha. Puede parecer tediosos, pero creo que es mejor que sacar canciones sin practicar la técnica...

EJERCICIO TRES
---------------------------------------------
------------------------------------------
-----------------------------------------
-------------------------------------------
----7---7---8----8-----------------------------
--5---5---6----6-----------------------

Aqui el martilleo es índice (5) anular (7) y medio (6) meñique (8)

luego ya empiezo las combinaciones

-------------------------------------------
------------8--------------8---------------
----------9---9----------9---9-------------
-------9--------9------9-------9-----------
----7----------------7---------------------
--5---------------5------------------------

el 5 y el 7 se tocan igual que el anterior y las otras notas son tapping con la mano derecha...

En fin, ya está algo extenso el correo. Peor quería compartir con uestdes algo de lo que estoy practicando:saludo:
Subir
#2 por rcetto el 09/01/2008
Muchas gracias,
La verdad es que me va a venir muy bien para empezar con esta tecnica que tampoco domino.

Un saludo

Rcetto
____________________________________
http://www.operacionaurora.com

Subir
#3 por AlejoRocks el 27/01/2010
Hey que tal, la verdad me parece fantastico lo que pusiste ya que nicuna otra persona habia habalado de la practica dde estos ejercicios y que pueden ser incluidos en la rutin normal para traer beneficios grandes.

Gracias saludos........
Subir
Respuesta rápida

Regístrate o para poder postear en este hilo