como tocar correctamente este lick....

#1 por cesar050 el 17/11/2010
Tengo la siguiente duda.
Este es un lick que se toca rapido; pero no estoy seguro que dedos usar para tocarlo.
si comienzo, indice, anular, menique, y luego toco el 8 de la segunda cuerda con el medio, los bends de la primera cuerda me van a quedar para hacerlos con el meñique, y me parece un poco incomodo hacerlos con el meñique (o deberia acostumbrame a hacerlos con el meñique?)
Si el 8 de la segunda cuerda lo toco con el indice, me kedan los bends con el anular q es muco mejor, pero al pasar de tocar el 9 de la tercera cuerda con el meñique al 8 de la segunda con el indice, mi mano se transporta bastante (o es normal?), a menos q el 5,7,9 de la tercera cuerda lo haga indice, anular, anular, pero me parece una manera no muy natural.
Bueno nose, quisiera que me aclaren al respecto por favor.
Muchas gracias.


|-------------------8--10b12--10b12-----12r10p8--------|
|------------8h10-------------------------------------10---|
|--5--7--9---------------------------------------------------|
|-------------------------------------------------------------|
|-------------------------------------------------------------|
|-------------------------------------------------------------|
Subir
#2 por despeluciao el 17/11/2010
Y que tal el 5 y el 7 con el indice?

https://soundcloud.com/toni-g-calderon

Subir
#3 por esclavo del rock el 17/11/2010
Facil.

voy a remplazar los numeros de el tab de los trastes por el de los dedos qu debes usar


---------------------1-3----1--3--4-2-1
------------- 1-4-----------------------
-----1--3--4----------------------------

O mas bien es como estes acostumbrado a tocar.
Digo yo uso mucho el menique pero la mayoria no. es como te acostumbres.
Subir
#4 por JohnW400 el 17/11/2010
cesar050 escribió:
Tengo la siguiente duda.
Este es un lick que se toca rapido; pero no estoy seguro que dedos usar para tocarlo.
si comienzo, indice, anular, menique, y luego toco el 8 de la segunda cuerda con el medio, los bends de la primera cuerda me van a quedar para hacerlos con el meñique, y me parece un poco incomodo hacerlos con el meñique (o deberia acostumbrame a hacerlos con el meñique?)
Si el 8 de la segunda cuerda lo toco con el indice, me kedan los bends con el anular q es muco mejor, pero al pasar de tocar el 9 de la tercera cuerda con el meñique al 8 de la segunda con el indice, mi mano se transporta bastante (o es normal?), a menos q el 5,7,9 de la tercera cuerda lo haga indice, anular, anular, pero me parece una manera no muy natural.
Bueno nose, quisiera que me aclaren al respecto por favor.
Muchas gracias.


|-------------------8--10b12--10b12-----12r10p8--------|
|------------8h10-------------------------------------10---|
|--5--7--9---------------------------------------------------|
|-(10)-------------------------------------------------------|
|-------------------------------------------------------------|
|-------------------------------------------------------------|


Porque no toque la C (5t/3c) por la 10 traste/4 cuerda ?
Subir
#5 por Pickup el 17/11/2010
Hola,

Yo habitualmente hago bending con el meñique. Para ello me ayudo del resto de dedos, es como si hicieses un bending en la misma cuerda con los cuatro dedos simultáneamente.

Salu2,
Subir
#6 por Santi el 17/11/2010
Yo hago, aunque bueno no se rapido puede llegar a ser ..
---------------------1-3----1--3--4-2-1
------------- 1-3-----------------------
-----1--2--4----

http://i152.photobucket.com/albums/s166/santv/hagar_beerrr.jpg

Subir
#7 por cesar050 el 18/11/2010
muchas gracias. me han dado 2 buenas alternativas.
Subir
Respuesta rápida

Regístrate o para poder postear en este hilo