Como diablos se toca lo siguiente

#1 por RabadanOscar el 06/12/2009
A lo mejor yo soy muy corto pero no se como tocar lo siguiente...

d|----------------------------|--------------------------|
A|----------------------------|-------------------------*|
F|-3-3-3-3-2--2-2-2--2-2-2--|-3-3-3-3-2--2-2-2--2-2-2--|
C|-5-5-5-5-5--5-5-5--5-5-5--|-5-5-5-5-5--5-5-5--5-5-5--|
G|-5-5-5-5-5--5-5-5--5-5-5--|-5-5-5-5-5--5-5-5--5-5-5-*|
C|-5-5-5-5-5--5-5-5--5-5-5--|-5-5-5-5-5--5-5-5--5-5-5--|

Como se coloca la mano para tocar eso? Sobre todo me refiero cuando hay q tocar en el traste dos, o es q hay q romperse el dedo indice? De verdad que no lo entiendo, y debe ser una tonteria, o quizas es que este mal simplemente, bueno, pues aver si alguien me resuelva el acertijo, Gracias.

https://www.youtube.com/channel/UC1jH4DMagCSDOsRg8BsZXAQ

Subir
#2 por pareja3 el 06/12/2009
yo creo que pondria el dedo meñique en la sexta cuerda, luego el anular en la 5 cuerda y el corazón en la 4, y usarias el indice para el tecer traste de la 3 cuerda

Cada uno labramos un estilo propio e inconfundible tocando....
Visitad mi canal en youtube! http://www.youtube.com/user/CristianPareja

Subir
#3 por David el 06/12/2009
Corazón 6ª, anular 5ª, meñique 4ª e índice 3ª.

Para la 3ª podrías probar haciendo una cejilla, estilo acorde de LA.

:saludo:
Subir
#4 por RabadanOscar el 06/12/2009
Pero con el dedo indice tengo q llegar al segundo traste? es realmente complicado si es asi... teniendo el resto de dedos en el quinto traste claro

https://www.youtube.com/channel/UC1jH4DMagCSDOsRg8BsZXAQ

Subir
#5 por David el 06/12/2009
Es jodido, sí, pero se puede (lo acabo de tocar :))

Puedes probar a hacer esto que suena parecido y es mucho más fácil:

d|----------------------------|--------------------------|
A|----------------------------|-------------------------*|
F|----------------------------|--------------------------|
C|-8-8-8-8-7--7-7-7--7-7-7--|-8-8-8-8-7--7-7-7--7-7-7--|
G|-5-5-5-5-5--5-5-5--5-5-5--|-5-5-5-5-5--5-5-5--5-5-5-*|
C|-5-5-5-5-5--5-5-5--5-5-5--|-5-5-5-5-5--5-5-5--5-5-5--|

:saludo:
Subir
1
#6 por RabadanOscar el 07/12/2009
Si es cierto que suena similar por no decir igual, Muchas Gracias

https://www.youtube.com/channel/UC1jH4DMagCSDOsRg8BsZXAQ

Subir
Respuesta rápida

Regístrate o para poder postear en este hilo