ayuda con limpieza en esto

#1 por adagio95 el 11/05/2012
holas, tengo un problema con la limpieza al tocar un lick en especifico que les describire acontinuacion, creo que es string picking

algo asi

1--13-12-13-10-13-8-13-----13-----13---13----13-----13-----13----13-----13---13----
2---------------------------12-----10-----9----10-----12-----10-----9----------------------
3------------------------------------------------------------------------------10----9--------
4---------------------------------------------------------------------------------------------
5---------------------------------------------------------------------------------------------
6---------------------------------------------------------------------------------------------


1------13-----13----13------13------13-----13-----13------13-------13--------------------
2--------------------------------------------------------------------------------------------
3-----------------------------------------------------------------------------9VVVVVVVVV
4--12-----10-----9---------------------------------9-----10------12-----------------------
5-------------------------12------11------12------------------------------------------------
6---------------------------------------------------------------------------------------------





bueno, ya tengo dominado ese lick a una buena velocidad, pero el problema que surge es que cuando paso de la primera parte de solo la primera cuerda a segunda tercera cuarta y quinta alternada empieza a escucharse sucio al mantener sujeto el traste 13 de la primera cuerda, e intentado ir tapando las cuerdas que voy tocando pero igual se cola algo de ruido al quedar sonando ese fa de la primera cuerda, si alguien puediera explicarme como hacerlo de forma limpia o mostarmelo en un video se ls agradeceria mucho

saludos y exitos
Subir
#2 por adagio95 el 11/05/2012
subo y de una vez corrigo, es string skipping, la confucion del picking jeje
Subir
#3 por adagio95 el 12/05/2012
subo
Subir
#4 por Diego P. Sebastian el 12/05/2012
Dale al traste trece con el dedo corazon mientras haces el resto de notas en la segunda, tercera y cuarta cuerda con la pua.

http://www.youtube.com/samalillo

Subir
#5 por adagio95 el 12/05/2012
osea, el problema no es la tecnica, es la limpieza

me explico, al tocar el trece queda sonando la nota y cuando toco otras cuerdas se escucha sucio, la verdad no se como mutear esa nota y menos a la velocidad en la que va ese lick :S
Subir
#6 por adagio95 el 20/05/2012
subo
Subir
#7 por tyko el 21/05/2012
intenta soltar el dedo del traste 13 un momento en que toques las demas cuerdas y luego la pones nuevamente.
Subir
#8 por adagio95 el 23/05/2012
#7 este lick va a una muy buena velocidad, por decir lgo para orientar a la velocidad de malmsteen, voy a probar con el metronomo y empezare a hacerlo poco a poco como dices aber que tal me va
gracias men ;)
Subir
Respuesta rápida

Regístrate o para poder postear en este hilo