Ayuda con este solo y su tonalidad

  • 1
Baneado
#1 por demian hell el 16/06/2010
A ver, como empiezo sin quedar mal - y que me crean XD -?
El tema es así, mi hermana es más chica y la otra vez ella estaba escuchando un tema de Miley Cyrus, y escuché un solo/arreglo de guitarra que me voló la cabeza literalmente



Está en el 3:14 en adelante, dura segundos.
En qué tonalidad está?
Si alguien puede escribirme la tab mejor :D Y bueno, DEPASO si alguien me dice los efectos que usaba esa guitarra, aún más. :brindis:
Saludos, y disculpen.

(No me pueden decir que no es un arreglo muy lindo)


Click en la imagen para entrar

Subir
#2 por steve506 el 17/06/2010
y para qué tabs? si cuidas tanto tus oidos de los acúfenos es porque los quieres usar, verdad? :D

asi a puro oido, pienso que va por F# mayor

algo como un I V VI IV

si le erré me corriges...

Salud! :brindis:

No comparto tus ideas, pero moriría por defender tu derecho a expresarlas.

Subir
Baneado
#3 por demian hell el 17/06/2010
steve506 escribió:
y para qué tabs? si cuidas tanto tus oidos de los acúfenos es porque los quieres usar, verdad? :D

asi a puro oido, pienso que va por F# mayor

algo como un I V VI IV

si le erré me corriges...

Salud! :brindis:


Creo que ya saqué algo, me falta una parte :|
A ver si voy muy mal

e|---------------------------------11------------------
B|---------2h4--4-4p2----------11----14p11------------
D|------3------------------13b---------------13b-------
G|---4--------------------------------------------------
A|-----------------------------------------------------
E|-----------------------------------------------------

Pero me falta un slide de cuando termina :roll:


Click en la imagen para entrar

Subir
#4 por lady black el 17/06/2010
Pues yo también lo he estado escuchando y, como dice steve, me parece que está en F# mayor.

He estado haciendo pruebas y creo que la succesión de F#, C#, D#sus4 y B6 suena decentilla... No sé, hace tiempo que dejé la armonía un poco perdida, pero a mí me sonó bien :$

"Mientras más aprendes, más te das cuenta de cuán ignorante eres."

Subir
Baneado
#5 por demian hell el 17/06/2010
Lady Black escribió:
Pues yo también lo he estado escuchando y, como dice steve, me parece que está en F# mayor.

He estado haciendo pruebas y creo que la succesión de F#, C#, D#sus4 y B6 suena decentilla... No sé, hace tiempo que dejé la armonía un poco perdida, pero a mí me sonó bien :$



MMm no tengo la guitarra encima porque es tarde y todos duermen, pero, me suena lógico :roll: Seguro está bien :D


Click en la imagen para entrar

Subir
#6 por lady black el 17/06/2010
Mira, he encontrado esto (típico... ) en una web, es bastante parecido a lo que indicas tú, lo has probado??

e|---------------------------11-11------------------11~--9\7-6~-------------|
B|---------2h4-4-4p2~-----9b-------9br-7-9p7---7~---------------------------|
G|------3------------------------------------8------------------------------|
D|--4~----------------------------------------------------------------------|
A|--------------------------------------------------------------------------|
E|--------------------------------------------------------------------------|

"Mientras más aprendes, más te das cuenta de cuán ignorante eres."

Subir
Baneado
#7 por demian hell el 17/06/2010
:O! No, mañana lo pruebo, al menos empezamos igual.
Ya te dí +1 por el comentario anterior, y a steve intenté pero no me dejó :D


Click en la imagen para entrar

Subir
#8 por lady black el 17/06/2010
Jooo, muchas gracias!! Ya lo probaste?? Suena bien?^^

"Mientras más aprendes, más te das cuenta de cuán ignorante eres."

Subir
--226008--
#9 por --226008-- el 17/06/2010
Lo que escuché yo fue esto :roll::

e|--------------------------------11----------------------------------
B|---------------2--h4p2------11---14-------------------------14fb---
G|------------3------------13b-------13br-11------13-----11----------
D|-------/4------------------------------------13-----13--------------
A|---------------------------------------------------------------------
E|-21/2----------------------------------------------------------------

creo que está correcto, perdon por amontonar las notas, por cierto está en re sostenido menor, saludos :saludo:
Subir
Baneado
#10 por demian hell el 17/06/2010
Lady Black escribió:
Jooo, muchas gracias!! Ya lo probaste?? Suena bien?^^


osca_spunk_ja escribió:
Lo que escuché yo fue esto :roll::

e|--------------------------------11----------------------------------
B|---------------2--h4p2------11---14-------------------------14fb---
G|------------3------------13b-------13br-11------13-----11----------
D|-------/4------------------------------------13-----13--------------
A|---------------------------------------------------------------------
E|-21/2----------------------------------------------------------------

creo que está correcto, perdon por amontonar las notas, por cierto está en re sostenido menor, saludos :saludo:


Después pruebo este :O
Sí, re# menor es la relativa de fa# :P
Gracias :brindis:


Click en la imagen para entrar

Subir
#11 por steve506 el 17/06/2010
osca_spunk_ja escribió:
Lo que escuché yo fue esto :roll::

e|--------------------------------11----------------------------------
B|---------------2--h4p2------11---14-------------------------14fb---
G|------------3------------13b-------13br-11------13-----11----------
D|-------/4------------------------------------13-----13--------------
A|---------------------------------------------------------------------
E|-21/2----------------------------------------------------------------

creo que está correcto, perdon por amontonar las notas, por cierto está en re sostenido menor, saludos :saludo:


Pues yo siento que suena muy mayor como para andar pensando en la relativa, la verdad...

No comparto tus ideas, pero moriría por defender tu derecho a expresarlas.

Subir
--226008--
#12 por --226008-- el 17/06/2010
Demian Hell escribió:
Después pruebo este :O
Sí, re# menor es la relativa de fa# :P
Gracias :brindis:


Tienes razón ;)

steve506 escribió:
Pues yo siento que suena muy mayor como para andar pensando en la relativa, la verdad...


Yo decía menor porque el tema empieza con el acorde D#m no con F#, :saludo:
Subir
Respuesta rápida

Regístrate o para poder postear en este hilo