Acordes para afinaciones en re y en do bajo

#1 por redheart el 26/05/2009
Hola un gusto contactar con Uds. Les cuento que mi capacidad instrumental con la guitarra es limitado, por ello estoy buscando una forma de tener tablas de acorde para afinaciones como la DADGAD "RE ABIERTO" o CGDGAD "DO BAJO O LOW C TUNING"

Quisiera con ellos tocar en el estilo celta o folk irlandes.
Saludos a todos y muchas gracias por cualquier aporte.
Subir
#2 por ace777 el 14/08/2009
Hola, aca te dejo los acordes de la armonia de Do mayor en la afinacion D A D G A D

C ................. Dm
D||--2--------|--3----------|
A||--3--------|--0----------|
G||--0--------|--2----------|
D||--2--------|--0----------|
A||--3--------|--0----------|
D||-----------|--0----------|


Em .............. F
--2---------|----------|
--2---------|--3-------|
--0---------|--2-------|
--2---------|--3-------|
------------|--0-------|
--2---------|--3-------|


G .............. Am
--0---------|--2--------|
--5---------|--3--------|
--4---------|--2--------|
--0---------|--2--------|
--5---------|--0--------|
--5---------|-----------|


Bm7/5-
--3-----|
--2-----|
--2-----|
--0-----|
--2-----|
--------|

No conosco mucho de la otra afinacion, nunca toque con ella, espero que te sirvan estos acordes...
Chau y suerte con la musica celta...:brindis:
Subir

HILOS SIMILARES

Respuesta rápida

Regístrate o para poder postear en este hilo