10 licks pentatonicos para principiantes o no tan prncipiantes

#1 por cornelio el 29/10/2009
aqui les dejos unos licks que yo hice y que les encuentro algo interesante en la forma de mover los dedos, no se que les parezca a ustedes

E||--15-12----------12-15-12----------------------||
B||--------15----15----------15-------------------||
G||-----------16----------------16-14-12----------||
D||--------------------------------------14-12-14-||
A||-----------------------------------------------||
E||-----------------------------------------------||


E||15-12----------12-15-12-------------------------12-15-17|
B||------15----15----------12-------------------15---------||
G||---------16----------------14-10-------12-16------------||
D||---------------------------------12-14------------------||
A||--------------------------------------------------------||
E||--------------------------------------------------------||

E||--17-15----------15-19-15----------15-17-19-22-||
B||--------17----17----------17----17-------------||
G||-----------19----------------19----------------||
D||-----------------------------------------------||
A||-----------------------------------------------||
E||-----------------------------------------------||


E||--22-19----------19-22-17-------------19-15-------|
B||--------20----20----------20-17-------------17----|
G||-----------21-------------------19-------------19-|
D||-----------------------------------21-------------|
A||--------------------------------------------------|
E||--------------------------------------------------|



-----15-19-15-------------15-12----------12-15-12-|
--17----------17----------------15----15----------|
-----------------19-16-------------16-------------|
-----------------------17-------------------------|
--------------------------------------------------|
--------------------------------------------------|



--------------------12-10----------------------||
--15-------------15-------12-11-10-8-10--------||
-----16-14-12-16-------------------------------||
-----------------------------------------------||
-----------------------------------------------||
-----------------------------------------------||


E||-----------------------12-15-17-19-||
B||--------------------15-------------||
G||--------------12-16----------------||
D||-----------12----------------------||
A||-----10-14-------------------------||
E||--12-------------------------------||



E||----------------------10-12-10-------12-10--------12
B||-------------------12----------12-10-------12-10----
G||-------------10-14----------------------------------
D||----------12----------------------------------------
A||----10-14-------------------------------------------
E||-12-------------------------------------------------



E||-----------------------10-12-10----------10-15-12-|
B||--------------------12----------12-10-14----------|
G||--------------10-14-------------------------------|
D||-----------12-------------------------------------|
A||-----10-14----------------------------------------|
E||--12----------------------------------------------|



---------------------------------||
--15-12--------------------------||
--------15-14-12-----------------||
-----------------14-12-14--------||
---------------------------------||
---------------------------------||



E||--15-12----------12-17-15----------15-19-17-------|
B||--------15----15----------17----17----------20----|
G||-----------16----------------19----------------21-|
D||--------------------------------------------------|
A||--------------------------------------------------|
E||--------------------------------------------------|



-----17-22-19----------19-22----------------||
--20----------22----22----------------------||
-----------------24-------------------------||
--------------------------------------------||
--------------------------------------------||
--------------------------------------------||


E||-15-12-------17-15-------19-17-------22-19---------22||
B||-------15-12-------17-15-------20-17-------22-20-----||
G||-----------------------------------------------------||
D||-----------------------------------------------------||
A||-----------------------------------------------------||
E||-----------------------------------------------------||


E||--------12----15-12----15h12----15h12---------||
B||-----12----15b------15-------15-------12-15b--||
G||--14b-----------------------------------------||
D||----------------------------------------------||
A||----------------------------------------------||
E||----------------------------------------------||
Subir
#2 por Coco el 29/10/2009
Hola, te importaría subir tambien los audios de como deberían sonar,,... me ayudaría mucho.
Subir
#3 por ecodalia el 29/10/2009
gracias por la aportación!!

Guitarristas, pero solo en casa!
Gibson Les Paul Studio
Parker P38
Line 6 X3 Live

Subir
#4 por ken310 el 29/10/2009
Muchas gracias!Una cosa asi es lo que me hacia falta
Por cierto cuando pones b te refieres a bending?si es asi de cuanto es?un full?
Subir
#5 por cornelio el 29/10/2009
si me explican como subir el audio de los licks. se los paso en formato midi, comprendan que soy nuevo en esto je
Subir
#6 por aeroforce15 el 30/10/2009
Muy buenos, gracias por compartirlos, los practicare haber que tal, sin más un saludo:saludo:

Trata a los demas como te gustaria que te traten, Recuerda: Wisdom is knowing how little we know y No olviden ¡visita el Chat, ya hay compañeros promoviendolo!.

Subir
#7 por cornelio el 30/10/2009
al parecer aki estan los audios si no les aparece diganmelo o que alguien me expilque como subirlos
Subir
#8 por rengifo29 el 30/10/2009
Amigo para subirlas en audio (en formato midi) pordrias usar el guitar pro que es bastante facil para elaborarlos. Y lesto, creo yo!
Subir
#9 por rurru el 30/10/2009
Oie no están mal. Te complicas demasiado para meter algunas notas, pero en ejecución están bastante interesantes. A veces metes unos barridos de pua que me recuerdan a unos ejercicios que cambiaron mi vida; los del audio-libro 'Improvisation Made Easier' de Frank Gambale....
Subir
#10 por asphix el 30/10/2009
cornelio escribió:
al parecer aki estan los audios si no les aparece diganmelo o que alguien me expilque como subirlos


Si observas en la parte de abajo de todos los mensajes hay una opcion que dice "gestionar archivos adjuntos" ahi puedes seleccionar los archivos de tu computadora que quieras subir al foro...

-----------------------------------------------------
La falta de talento se puede compensar con disciplina...

Subir
#11 por Coco el 30/10/2009
Para subir archivos..... ;) o como dice Asphix
Archivos adjuntos:
subirarchivos.jpg
BBCode:
Subir
Respuesta rápida

Regístrate o para poder postear en este hilo