unas dudas Sobre el sweep picking...y algo mas

#1 por the_ripper013 el 27/01/2011
se me dio por empezar a practicar esta tecnica para aplicarla a mi estilo creativo, he empezado usando solo 2, 3 o 4 cuerdas, pero tengo una duda...



por ejemplo este fragmento del primer solo de de hangar 18


--18p-13----------------13-18p-13-15p-12-13-12-------|-----||
---------15----------15------------------------------15-13-|-----||
------------15----15-----------------------------------------|-----||
---------------15---------------------------------------------|-----||
---------------------------------------------------------------|-----||
-----------------------------------------------------|-----||

justo aqui, cual es la digitacion correcta para esta parte



-----------------------------------------------------|-----||
---------15----------15------------------------------|-----||
------------15----15---------------------------------|-----||
---------------15------------------------------------|-----||
-----------------------------------------------------|-----||
-----------------------------------------------------|-----||

se usa 1 solo dedo?, (ya que va en el traste 15, o varios dedos?, y como es el modo correcto ascendiendo y descendiendo


otra cosa, se debe o no mutear las cuerdas, para que no suene como acordes, o como se debe callar las notas?

agradezco sinceramente su ayuda;)


otra cosa...
las escalas pentatonicas tienen solo 5 notas, verdad?
mirando las escalas japonesas y/o chinas tambien solo tienen 5 notas...
entonces, las esc. japonesas y/o chinas tambien serian pentatonicas?
Subir
#2 por selvy el 27/01/2011
the_ripper013 escribió:
se me dio por empezar a practicar esta tecnica para aplicarla a mi estilo creativo, he empezado usando solo 2, 3 o 4 cuerdas, pero tengo una duda...



por ejemplo este fragmento del primer solo de de hangar 18


--18p-13----------------13-18p-13-15p-12-13-12-------|-----||
---------15----------15------------------------------15-13-|-----||
------------15----15-----------------------------------------|-----||
---------------15---------------------------------------------|-----||
---------------------------------------------------------------|-----||
-----------------------------------------------------|-----||

justo aqui, cual es la digitacion correcta para esta parte



-----------------------------------------------------|-----||
---------15----------15------------------------------|-----||
------------15----15---------------------------------|-----||
---------------15------------------------------------|-----||
-----------------------------------------------------|-----||
-----------------------------------------------------|-----||

se usa 1 solo dedo?, (ya que va en el traste 15, o varios dedos?, y como es el modo correcto ascendiendo y descendiendo


otra cosa, se debe o no mutear las cuerdas, para que no suene como acordes, o como se debe callar las notas?

agradezco sinceramente su ayuda;)


otra cosa...
las escalas pentatonicas tienen solo 5 notas, verdad?
mirando las escalas japonesas y/o chinas tambien solo tienen 5 notas...
entonces, las esc. japonesas y/o chinas tambien serian pentatonicas?


No se a que te refieres con un solo dedo...si quieres decir si en esos "15" poner un dedo la respuesta si, es un arpegio mayor y donde pones 15 pondrias tu dedo 2.

No debe de sonar como una acorde, es como bajar o subir una escalera ( por asi decirtelo por aqui) una detras de otra y no todas al unisono.

Las pentatonicas son escalas de los años de la polca en la dinastia Min...los mas listo e inteligentes fueron alli y se quedaron flipadillos con la escala y la copiaron. Pero a su vuelta decidieron incorporarlas a su cultara y decidieron llamarlas pentatonicas.

Es una explicacion cutre para niños de 5 años :D

Te podria dar otra similar con la escala que sale de los cantos gregorianos jajajja

:saludo:

http://www.diver-sos.com
http://www.control24h.com

Subir
#3 por N.C. el 27/01/2011
Sí, usa un solo dedo, practica finger rolling
Subir
#4 por azote87 el 28/01/2011
Re Mayor escribió:
Sí, usa un solo dedo, practica finger rolling


Si, el sweep se ejecuta de esa forma.. ah y toda escala de 5 notas es una pentatonica (por la etimologia de la palabra) aunque la mas conocida y usada sea la blusera..

"Pick like a man!.."

-Matt Heafy.

Subir
Respuesta rápida

Regístrate o para poder postear en este hilo