Transcripción del solo de Wasting Love - Iron Maiden

#1 por N.C. el 03/05/2011
A pedido de Albitha =)

[CODE]E||-----------------------------------------------------------------------------
B||--15----------------------------\8s----3-------------------------------------
G||--14b----12----------12---------\7s----2---------7b----5----4----5----4------
D||---------------14----------------------------------------------------------7-
A||-----------------------------------------------------------------------------
E||-----------------------------------------------------------------------------



------------------------15----------14----------12------------------------------
------------------12----------12----------12----------12----15----15b----13----12
--------------------------------------------------------------------------------
--5s----7-----------------------------------------------------------------------
--------------------------------------------------------------------------------
--------------------------------------------------------------------------------


--------12----------14----------15----------14----------15----------17----17b---
--12----------12----------12----------12----------12----------12----------------
--------------------------------------------------------------------------------
--------------------------------------------------------------------------------
--------------------------------------------------------------------------------
--------------------------------------------------------------------------------



--17b----15----14----15---------17b----15----14---------------17b----15----14---
---------------------------------------------------15---------------------------
--------------------------------------------------------------------------------
--------------------------------------------------------------------------------
--------------------------------------------------------------------------------
--------------------------------------------------------------------------------



--15----14--------------------------------------------
--------------17----15----17----15---------15---------
------------------------------------------------------
------------------------------------------------------
------------------------------------------------------
------------------------------------------------------

-------------------15----14----------------------------------
--15---------12----------------15----13----12----13----12----
-------------------------------------------------------------
-------------------------------------------------------------
-------------------------------------------------------------
-------------------------------------------------------------


-------------------------------------12----------14----------15----------17----17b-
-------------------------------12----------12----------12----------12-----------
--14----12----11----12----------------------------------------------------------
--------------------------------------------------------------------------------
--------------------------------------------------------------------------------
--------------------------------------------------------------------------------

[/CODE]

Ahí está exacto, obviamente, hay que darle los vibrattos y no sé si me olvido de algún bend y no marqué los slides, pero eso es más personal :ok: Espero que te sirva y te salga.
Subir
#2 por Albitha el 03/05/2011
Exeleeennteeee!!! ma.ana mismo me grabare! por cierto, que efectos utilizaste?¿

En la vida hay momentos que no son solo de distorsión Necesitas 6 cuerdas limpias que produzcan un sonido mucho mejor que el silencio.

Subir
#3 por N.C. el 03/05/2011
Bueno, grabé con el amplitube y usé en Lead -> Melodic Lead
Así que no sabría decirte =(
Igual, de oído, es el ampli + distorción + un poco de reverb que se lo agregué yo y un compresor.
Espero ansioso el video =) Suerte
Subir
Respuesta rápida

Regístrate o para poder postear en este hilo