Tierra santa-tabs,gp..

#49 por dragonslayer609 el 01/02/2011
Claudi escribió:
¿Y bien, sacásteis algo más?


Pues la verdad no, porque no he tenido mucho tiempo, el arpegio del principio me cuesta, asique me metere con el 1º punteo, y asi ya nada mas faltara el solo...

saludos

Jamas un guitarrista es mejor que otro, solo diferente.
---------------------------------------------------
Mi canal de Youtube

Subir
#50 por jumy el 01/02/2011
buenas...no no he sacado nada mas,ahora mismo esoy de examenes y tengo un poco abandonada la guitarra:(
pero pronto se acabaran para ver si al fin sacamos la canción.
Subir
#51 por dragonslayer609 el 05/02/2011
como va la cosa? habeis sacado algo nuevo?¿

Jamas un guitarrista es mejor que otro, solo diferente.
---------------------------------------------------
Mi canal de Youtube

Subir
#52 por Pasando pantalla el 06/02/2011
Bueno, yo no saqué nada más puesto que no soy el interesado. Sólo os ayudo. :D
Si me dices por qué parte vas entonces me puedo poner al tajo que en poco tiempo lo saco. ¿Has sacado el primer punteo o te cuesta alguna parte de él? Recuerda que lo importante es que puedas cantar lo que vas a sacar y luego lo intentas con la guitarra.

http://www.guitarmonia.es/intervalos-musicales/intervalos-en-la-guitarra/
http://www.pianoaventura.com/documentos/curso_completo_de_teoria_de_la_musica.pdf
http://www.all-guitar-chords.com/guitar_scales.php
http://www.discoverguitaronline.com/

Subir
#53 por dragonslayer609 el 06/02/2011
Claudi escribió:
Bueno, yo no saqué nada más puesto que no soy el interesado. Sólo os ayudo. :D
Si me dices por qué parte vas entonces me puedo poner al tajo que en poco tiempo lo saco. ¿Has sacado el primer punteo o te cuesta alguna parte de él? Recuerda que lo importante es que puedas cantar lo que vas a sacar y luego lo intentas con la guitarra.


a ver creo que tengo algo del solo del principio por donde tirar algo,

E-----------------------------------------------------------------------
B-----------------------------------------------------------------------
G-----------------------------------------------------------------------
D---/14-----17(V)---------14-16-17-16--14---17(V)---------------
A-----------------------------------------------------------------------
E-----------------------------------------------------------------------

Lo de antes se repite creo que 4 veces,,,, quitando las dos notas iniciales

E-----------------------------------------------------------------------
B-----------------------------------------------------------------------
G-----------------------------------------------------------------------
D---17-16--14-------14--16--17(v)---------------------------------
A----------------17--------------------------------------------------
E-----------------------------------------------------------------------

Se toca rapido, se entiende si se toca como se escucha...

Jamas un guitarrista es mejor que otro, solo diferente.
---------------------------------------------------
Mi canal de Youtube

Subir
#54 por jumy el 06/02/2011
alguien sabe usar el gp,para poder pasar todo esto a un tab?

acabo de adjuntar el punteo de principio a ver que os parece
Archivos adjuntos:
Subir
#55 por dragonslayer609 el 06/02/2011
el guitar pro es sencillo de usar, es poner con el raton sobre el pentragrama y clickeas el numero correspondiente y te sale,pero tienes que saber teoria , para respetar los tiempos y demas del pentagrama...

Es correcta esa introduccion, en la pagina anterior esta bien lo que yo puse, del estribillo y el punteo de la mitad y del final.

saludos

Jamas un guitarrista es mejor que otro, solo diferente.
---------------------------------------------------
Mi canal de Youtube

Subir
#56 por jumy el 06/02/2011
lo que sacaste tu,lo he estado tocando hoy y si que esta bien,o al menos a mi me suena bien.

La introducción(tema acustico) lo he sacado punteando...pero en plan cejilla no consigo sacar las notas(acordes)para hacerlo mas facil
Subir
#57 por Pasando pantalla el 07/02/2011
Bien hecho, chicos. La próxima noche estaré solo en casa (ahora estoy en el curro y sin audio) y podré revisar todo lo que habeis sacado. :ok:
jumy, a los acordes mayores y menores que no son de cejilla y tocados en los 3 primeros trastes se les llama acordes abiertos, por que hay notas que suenan al aire.
¡Vamos, que ya casi lo tenemos!

http://www.guitarmonia.es/intervalos-musicales/intervalos-en-la-guitarra/
http://www.pianoaventura.com/documentos/curso_completo_de_teoria_de_la_musica.pdf
http://www.all-guitar-chords.com/guitar_scales.php
http://www.discoverguitaronline.com/

Subir
#58 por athila667 el 07/02/2011
olas tengo partituras de guiatarra andina si les intereza ahy esta mi blog escribanme.. Intercambio Cultural Partituras Peruanas Para "El MUNDO": Partituras de Guitarra Andina & Criolla
Subir
#59 por dragonslayer609 el 07/02/2011
jumy escribió:
alguien sabe usar el gp,para poder pasar todo esto a un tab?

acabo de adjuntar el punteo de principio a ver que os parece


Yo la primera parte la toco de esta forma, que creo que es hasta mas facil y nose si suena mejor.... Que corresponderia a todos los pentagramas de tu pdf menos al ultimo, que seria la parte que falta... el movimiento de pua es el mismo para las 3 partes, y la posicion de los dedos es sencilla.

E-----------------------------
B-----------------------------
G---------0-------------------
D-----2-----2----2------2-----
A-------2------2---2------2---
E---0-----------------0-------

E---------------------------
B---------------------------
G--------0------------------
D----2-----2----2------2----
A------3------3---3------3--
E--0-----------------0------

E----------------------------
B----------------------------
G--------0-------------------
D----4-----4----4------4-----
A------5------5---5------5---
E--0-----------------0-------

He subido un mp3 de como suena esto mas o menos...


Se tocaria como un mi y un do(sin la nota aguda), la posicion del dedo es mas facil de esta forma, no se si sera correcta...

Jamas un guitarrista es mejor que otro, solo diferente.
---------------------------------------------------
Mi canal de Youtube

Subir
#60 por jumy el 07/02/2011
la verdad que si que es mas facil de tocarla!
Subir
Respuesta rápida

Regístrate o para poder postear en este hilo