The Chain (3DG) - Fleetwood Mac Cover

#1 por germanico23 el 20/03/2011
Hola a todos! Hace poco descubrí esta canción y me encantó, y al querer buscar tablaturas o algo con lo que ayudarme...vi que no habia en ningún lado.

Total que a tontas y a locas he conseguido sacarme toda la canción excepto parte de estribillo y...la parte más simple, la intro en limpio.

Si alguien me ayudara a sacar como se toca al menos la intro, le estaria muuuy agradecido, ya que nos gustaría tocar esta canción en nuestro grupo.

Subir
#2 por Pasando pantalla el 06/04/2011
Intro:
----------0------------------------------------0---------------------|
----1----------------1----3--------------1----------------1---3----|
----2--2---------------2-------------------2----------------2-------|
-0---------------------0---------------------------------------------|
-0----------------0-----------------0-0--------------0-0-----------|
----------------------------------------------------------------------|

¿Que parte del estribillo te cuesta, acordes o melodía?
:saludo:

http://www.guitarmonia.es/intervalos-musicales/intervalos-en-la-guitarra/
http://www.pianoaventura.com/documentos/curso_completo_de_teoria_de_la_musica.pdf
http://www.all-guitar-chords.com/guitar_scales.php
http://www.discoverguitaronline.com/

Subir
#3 por germanico23 el 08/04/2011
Muchisimas gracias por tu respuesta!
Mmmm en principio tengo la base del estribillo, que sería algo más o menos así. El punteo de que suena de fondo no lo pillo pero vamos que da igual xD

-------------------------------------------------------------------------------------|
-------------------------------------------------------------------------------------|
-------------------------------------------------------------------------------------|
-5-5-5-5-3-5-5-5-5-3-0-0-7-8-8-8-8-10-10-10-10-8-7-5-7---------|
-5-5-5-5-3-5-5-5-5-3-0-0-7-8-8-8-8-10-10-10-10-8-7-5-7---------|
-5-5-5-5-3-5-5-5-5-3-0-0-7-8-8-8-8-10-10-10-10-8-7-5-7---------|
Subir
#4 por Pasando pantalla el 10/04/2011
---------------------------------------------------------------------------------------------------------------------------------|
-13(b)^(b)13-10-11~~10------------11-10----11-13(b)-13(b)-13(b)-13(b)-13-13(b)-13(b)-13(b)-13(b)-13|
--------------------------------12~~~~--------12---------------------------------------------------------------------------|
---------------------------------------------------------------------------------------------------------------------------------|
---------------------------------------------------------------------------------------------------------------------------------|
---------------------------------------------------------------------------------------------------------------------------------|


---------------------------------------------------------------|
-13(b)^(b)13-10-11~~10------------11-10----11----|
--------------------------------12~~~~--------12---------|
--------------------------------------------------------12----|
---------------------------------------------------------------|
---------------------------------------------------------------|
:saludo:

http://www.guitarmonia.es/intervalos-musicales/intervalos-en-la-guitarra/
http://www.pianoaventura.com/documentos/curso_completo_de_teoria_de_la_musica.pdf
http://www.all-guitar-chords.com/guitar_scales.php
http://www.discoverguitaronline.com/

Subir
Respuesta rápida

Regístrate o para poder postear en este hilo