con que temas continuo?

  • 2
#13 por thecrazyguitarm el 14/09/2011
#11 pues seria el 4.28, ese sweep en la tab que tengo me parece algo raro de ejecutar, subo la tab tambien

METAAAAAAAAAAAAAAAAAAAAAAAAAAAAAAAAAL!!!!!!!!!!!!!!!!!!!!

Subir
#14 por Nico Gallardo el 14/09/2011
yo baje mi tab de ultimate guitar, y tampoco me convence. te paso la parte que mencionas, o sino busca la tab en la pagina , el resto del solo esta bien


|-------10s20-16----------10s20-16----------10s20-|
|----10----------17----10----------17----10-------|
|-10----------------10----------------10----------|
|-------------------------------------------------|
|-------------------------------------------------|
|-------------------------------------------------|

|-16----20-16----20-16----20-16----20-16-------------|
|----17-------17-------17-------17-------17s19-------|
|----------------------------------------------------|
|----------------------------------------------------|
|----------------------------------------------------|
|----------------------------------------------------|

"SALVEMOS EL CHAT"
entra aqui y brindanos tu apoyo: http://www.guitarristas.info/chat

campaña a favor del tan decaido y sobrevalorado chat...!!

Subir
#15 por thecrazyguitarm el 16/09/2011
#14 mm nose me sigue sin convencer, lo sacaria yo, pero apenas saco ritmicas.... y la de cowboys, creo que la dejare pa un poco mas adelante, y en ktulu acabo me tengo que poner ya mismo con el solo, ya os contare los problemas que surjan, pero si quereis ir recomendando mas temas teneis via libre, me gustaria algo tipo 7 cuerdas, me quiero aprender the river dragon has come pero el solo, aunque no va tan rapido como otros, me parece dificil

METAAAAAAAAAAAAAAAAAAAAAAAAAAAAAAAAAL!!!!!!!!!!!!!!!!!!!!

Subir
#16 por ijms el 18/09/2011
#15 mira a ver esto, hombre...
Subir
#17 por ijms el 18/09/2011
Perdón, edite mal el slide:
Subir
Respuesta rápida

Regístrate o para poder postear en este hilo