Tablaturas y pua

#1 por Dani119 el 06/03/2011
Siempre e tenido la siguiente duda, en algunas tablaturas me sale esto:

------------------------
------------------------
---9------10----------
------------------------
---7------8------------
-----------------------

o esto:

------------------------
------------------------
---9-------10----------
---X-------X------------
---7-------8------------
-----------------------

(que supongo que será lo mismo, ya que en la anterior no salia ningun 0 en la cuerda de enmedio)

¿Como se supone que he de tocar ese acorde con la pua?

(Con los dedos no tiene ningún misterio) pero si lo hago con la pua irremediablemente la cuerda de enmedio sonará, anoser que haga lo que e estado haciendo hasta ahora, con el dedo que tengo más arriba procuro tocar la cuerda de enmedio lo suficiente como para que no suene al aire, pero no demasiado para que no suene en ese traste, de tal forma que se queda muda.Sin embargo ese truco se me va a la porra en un acorde como este:

------------------------
------------------------
-----------2----------
------------------------
-----------0----------
-----------------------

¿Alguna solución?, y en teoría... ¿Como se supone que he de tocar ese tipo de acorde con la pua?


¡Saludos!
Subir
#2 por ABusLux el 06/03/2011
Has usado el buscador? Hay otro hilo en el que se preguntaba exactamente lo mismo y en el que se trató el tema.

Mis crímenes, en vídeo: http://www.youtube.com/user/ABusLux
Try not. Do. Or do not. There is no try.

Demo CD con The Soblime

Subir
#3 por Dani119 el 06/03/2011
Si pero ahí solo se resolvia el como tocar esto:

---------------
----------------
---------10------
---------------
---------9-------
----------------

(con el dedo)

Pero tocar algo como esto? (con una al aire)

---------------
----------------
---------2------
---------------
---------0-------
----------------
Subir
#4 por ABusLux el 06/03/2011
Pues lo mismo, o bien usando una técnica híbrida (quinta cuerda con la púa y tercera con el dedo medio o anular), o bien muteando la vuarta cuerda con un dedo libre de la mano izquierda. En un tema que tocamos en el grupo en el que hay una parte de un solo tocado en octavas incluyendo una figura como la que comentas, yo lo hago de la segunda manera.

Mis crímenes, en vídeo: http://www.youtube.com/user/ABusLux
Try not. Do. Or do not. There is no try.

Demo CD con The Soblime

Subir
#5 por Dani119 el 06/03/2011
ok, gracias!:D
Subir
Respuesta rápida

Regístrate o para poder postear en este hilo