Tablatura Mein herz Brennt- Rammstein

Baneado
#1 por Odio al Venereas el 04/06/2010
Bueno, aqui esta la tab de una cancion que me encanta y que intentare aprenderme en cuanto se me acaben los examenes de los huevos:



Artista: Rammstein


Rammstein
Mein Herz Brennt
D A D G B E

Intro
El------------------------------------l--------l
Bl------------------------------------l--------l
G|-5-5-5-5--5-5-5-5-5-5-5--5-5-5-5-|-------|
D|-5-5-5-5--5-5-5-5-5-5-5--5-5-5-5-|-3--4--|
A|-3-3-3-3--3-3-3-3-3-3-3--3-3-3-3-|-3--4--|
D|-----------------------------------|-3--4--|

Chorus
El----------------------------------l
Bl----------------------------------l
G|-5-------------------------------|
D|-5-------3-------6-------5-------|
A|-3-------3-------6-------5-------|
D|---------3-------6-------5-------|



Solo (Gtr. 1 w/wah)
E|------------------------------------------10~--------------|
B|----------10----------10----------10--13~-----13-11-10-----|
G|-9--10-12----9--10-12----9--10-12----------------------12--|
Dl--------------------------------------------------------------l
Al--------------------------------------------------------------l
Dl--------------------------------------------------------------l

Bueno es muy facilita en Dropped D, solo teneis que escuchar la cancion y ver como encajan los riffs para ver en que orden hacerlo, si me he dejado algo me avisais que lo pongo.

Firma libre: Imaginala a tu gusto

Subir
#2 por dalonsobilbao el 05/03/2011
Esta cancion me encanta ^^ . Ahora a aprendersela
Gracias por el aporte

Viva Rammstein

Subir
#3 por Pakchoi el 17/06/2011
Esta canción yo la toco casi igual pero en el solo yo utilizaba una cuerda nada más y lo que hago ahora es hacer el solo con octavas, a mi personalmente me gusta más y si le añades un wah mejor que mejor

Se me agarrotan los dedos!!!

Subir

HILOS SIMILARES

Respuesta rápida

Regístrate o para poder postear en este hilo