Solo a través del mástil

#1 por salasrock el 27/03/2011
Hola a todos:
Me gustaría que me dijeseis como se hace lo que hace el guitarrista en el min 2:15 y si me podéis pasar tablaturas con este tipo de solos
Subir
#2 por thecrazyguitarm el 27/03/2011
PM--------------------| PM--------------------------|
-----------------------------------------------------------------------------|
-----------------------------------------------------------------------------|
------------------------------------------7h8h10---------8-10-12p10p6--------|
---------5-6-8-6-5-----------5h6h8-6h8h10--------8-10-12---------------------|
--5-6-8------------8-6-5h6h8-------------------------------------------------|
-----------------------------------------------------------------------------|

PM-----------------------------------------------------------------|
-----------------------------------------------------------------------------|
-----------------------------------------------------------------------------|
-------------------10-----------------12h13h15----------13-15-17p15p13-------|
--12-10-8-10-12-13----13-12-12-13-15-----------13-15-17----------------------|
-----------------------------------------------------------------------------|
-----------------------------------------------------------------------------|


---------------------------------------------------------------------------|
--------------------------------------------------------11h13h15-----------|
--------------------12-13-15----------12-13-15-10-12-13----------12-13-15--|
--17p15p13-13-15-17----------12-13-15--------------------------------------|
---------------------------------------------------------------------------|
---------------------------------------------------------------------------|


---------------------------------------------------------------------------|
--13h15h16-18-16-15----------------13-15-16-15----15~~~~~~~~---------------|
--------------------17-15-13-15-17-----------------------------------------|
---------------------------------------------------------------------------|
---------------------------------------------------------------------------|
---------------------------------------------------------------------------|


----------------------------------11/15------------------------------------|
--16p15p13-15~~~~~~~~~--16p15p13------------16-----15-----13-----15--------|
---------------------------------------------------------------------------|
---------------------------------------------------------------------------|
---------------------------------------------------------------------------|
---------------------------------------------------------------------------|

BU BD BU BD
-----------------------15------(16)-------(15)-----------------------------|
---15---(16)---(15)--------------------------------15-------16-------------|
---------------------------------------------------------------------------|
---------------------------------------------------------------------------|
---------------------------------------------------------------------------|
---------------------------------------------------------------------------|

BU BD
---------------------------------------11-(13)----(11)------10---11--------|
--15/16\15-----13---[13]\11------13----------------------------------------|
---------------------------------------------------------------------------|
---------------------------------------------------------------------------|
---------------------------------------------------------------------------|
---------------------------------------------------------------------------|


--10h11p10----------10----[10]/15------------------------------------------|
------------11----------------------16---15---16------15h16p15-------------|
----------------------------------------------------------------17---------|
---------------------------------------------------------------------------|
---------------------------------------------------------------------------|
---------------------------------------------------------------------------|


---------------------------------------------------------------------------|
--15-----16-----15~~~~~~~~~~~~---------------------------------------------|
-----------------------------------7\5/7----[7]/10\7~~~~~~~~~~~~~----------|
---------------------------------------------------------------------------|
---------------------------------------------------------------------------|
---------------------------------------------------------------------------|


---------------------------------------------------------------------------|
---------------------------------------------------------------------------|
-------------------------------------------------12-------12h13h15p13\10---|
-------------------------10h12h13p12p10/12h13h15----15p13------------------|
--10h11--13p11p10h11h13----------------------------------------------------|
---------------------------------------------------------------------------|


---------------------------------------------------------------------------|
---------------------------------------------------------------------------|
-----------------10h12h13p12p10--------------------------------------------|
--13p12p10h12h13----------------13p12p10---8----8--------------5-----------|
------------------------------------------------------12p10----------------|
---------------------------------------------------------------------------|


---------------------------------------------------------------------------|
--8----8-------------------------------------------------------------------|
------------8----8-----7h8p7----------7------------------------------------|
-------------------------------10----------8h10p8p7------8------7----------|
---------------------------------------------------------------------------|
---------------------------------------------------------------------------|


---------------------------------------------------------------------------|
---------------------------------------------------------------------------|
---------------------------------------------------------------------------|
---------------------------------------------------------------------------|
--6----5----3----5---------------------------------------------------------|
---------------------------------------------------------------------------|

es facil, son como mecanismos
PD:esta no es la que yo uso, cuando tenga tiempo te la paso por mp, es que es lo que mas tenia a mano

METAAAAAAAAAAAAAAAAAAAAAAAAAAAAAAAAAL!!!!!!!!!!!!!!!!!!!!

Subir
Respuesta rápida

Regístrate o para poder postear en este hilo