solo de metallica..!!!!

#1 por joelkirk el 18/04/2012
Claro aqui te pongo la parte del solo en mp3 ...es dificil a mi parecer ayudame!!!
quiero saber que tecnica utiliza.
Como comienzo el punteo alterno o esweepicking.!! no lo se ayuda.!!



e|--------------------------------14-17p15p14------------17p15p14------------|
B|-----7---8---10--12~------/17---------------17p15p14------------17p15p14---|
G|-7-9-----------------------------------------------------------------------|
D|---------------------------------------------------------------------------|
A|---------------------------------------------------------------------------|
E|---------------------------------------------------------------------------|





e|17p15p14------------17p15p14---------------------------------------------|
B|---------17p15p14------------17p15p14-----17p15p14------------17p15p14---|
G|---------------------------------------------------16p14p13--------------|
D|-------------------------------------------------------------------------|
A|-------------------------------------------------------------------------|
E|-------------------------------------------------------------------------|

e|------------------------------------------------------------------------|
B|-----------15-14-12-14-12-----------------------------------------------|
G|16p14p13------------------14p13p12---14---16r14---12~-------12~----12---|
D|---------------------------------------------------------14-------------|
A|------------------------------------------------------------------------|
E|------------------------------------------------------------------------|
Subir
#2 por joelkirk el 18/04/2012
Es el solo de metallica The day that never comes la parte mas dificil a mi parecer.!!!
ayuda.!!
Subir
#3 por usuario18 el 18/04/2012
simplemente usa picking alternado y practicalo lento con metronomo,no hay mucho mas que eso..
Subir
#4 por joelkirk el 18/04/2012
grax amigo.!! xD
Subir
Respuesta rápida

Regístrate o para poder postear en este hilo