Solicitud de tablatura del Solista, (Ya busque y nada...)

#1 por victorb el 12/06/2011
http://www.youtube.com/watch?v=DOtAsYJto3g[/YOUTUBE] EStoy loco con esta cancion es el opening de un animie que veia de pequeño (Jester el aventurero) y no tengo buen oido para sacar tabs... Si alguien se anima a sacarla se lo agradeceria mucho... Otakus guitarristas os necesito! xD. PD: Con la tab de lguitarrista solista me conformo pero si alguien le da por sacarsela entera le hago un monumento!!! :D Saludos y gracias de antemano.[YOUTUBE]http://www.youtube.com/watch?v=DOtAsYJto3g[/YOUTUBE]

EStoy loco con esta cancion es el opening de un animie que veia de pequeño (Jester el aventurero) y no tengo buen oido para sacar tabs... Si alguien se anima a sacarla se lo agradeceria mucho...

Otakus guitarristas os necesito! xD.

PD: Con la tab de lguitarrista solista me conformo pero si alguien le da por sacarsela entera le hago un monumento!!! :D


Saludos y gracias de antemano.

Master of puppets

Subir
#2 por Pasando pantalla el 14/06/2011
Hola, Víctor. Yo de momento me lo saco entero...el solo.
Solo con wha-wha.
4 veces
|-------------|-------------|
|-6-----------|-8----------|
|---7-5-7~~|---7-5-7~~|
|-------------|-------------|
|-------------|-------------|
|-------------|-------------|

Solo
|-----------------------------------------------------------------------------------|
|---------------------------------------------------------------15~~13-15-16/|
|-------------12~~14b~~--------------14-12~12-14-----------------------|
|-12-13-15----------------15-12~12~-----------------15-------------------|
|-----------------------------------------------------------------------------------|
|-----------------------------------------------------------------------------------|

|-/13---------------------13----------------------------------------15-17-18~~~-|
|------16-15-16-15-13----16-15-13----------------15-16-18-------------------|
|------------------------------------------15-14-15-17------------------------------|
|----------------------------------------------------------------------------------------|
|----------------------------------------------------------------------------------------|
|----------------------------------------------------------------------------------------|

http://www.guitarmonia.es/intervalos-musicales/intervalos-en-la-guitarra/
http://www.pianoaventura.com/documentos/curso_completo_de_teoria_de_la_musica.pdf
http://www.all-guitar-chords.com/guitar_scales.php
http://www.discoverguitaronline.com/

Subir
#3 por victorb el 14/06/2011
Muchisimas gracias ahora voy a ponerme a sacarlo, si alguien se anima a sacarla entera estaria bien tmb. Aunque con el solo voy sobrao jajaj :). Muchisimas gracias ^^

Master of puppets

Subir
Respuesta rápida

Regístrate o para poder postear en este hilo