solicito tablatura barricada en blanco y negro

#1 por les paul studio el 11/05/2011
alguien me podría ayudar y pasarme el solo de esta canción y el punteo que se hace al principio, la guitarra que se escucha de fondo, lo agradecería mucho, porque lo que encontré en internet del solo el principio es muy similar pero después la diferencia es notable y no me gusta mucho. Gracias de antemano
Subir
#3 por guitarherofuture el 12/05/2011
Claudi las dos que pasaste son de barricada pero no es el tema "en blanco y negro" ademas ese tema es como conplicado de conseguir creo yo. Ahora no puedo mirar la vdd pero si lo encuentro mñn doy el link o el archivo en GP.
Subir
#4 por Pasando pantalla el 12/05/2011
¡Ahí va, qué cabezón que soy! Si esta la tocaba yo en mis 20's. Aquí la teneis:
Intro:
-0-----0-----0----0------0----0----0----0--------------|
---3-----3-----3----3-------3----3----3----3-----------|
-----2-----2-----2----2-------2----2-----2---2-----2---|
----------------------------------------------------2--2---|
--------------------------------------------------------0--|
------------------------------------------------------------|

-0-0-0--------0-0-0-----------|--0------|
-3-3-3--------3-3-3-3-3-3---|--3------|
-2-2-2-2------2-2-2-2-2-2--|---2--2--|
--------2--------------2-2-2--|-------2--|
--------0-----------------------|-------0--|
--------------------------------|-----------|

Estrofas: Palm mute
------------------------------------------------------------------------|
------------------------------------------------------------------------|
------------------------------------------------------------------------|
------------------------------------------------------------------------|
------------------3-3-3-3-3-3-3------------------5-5-5-5-5-5-5--|
-3-3-3-3-3-3-3------------------3-3-3-3-3-3-3-------------------|

Entre estrofas y estrofa "tengo tiempo para crecer..."+solo:
-------------------------------------------------|
-------------------------------------------------|
-----------------------------------7------7-----|
-5/-7---5/-7---5/-7---5/-7----7------7-----|
-5/-7---5/-7---5/-7---5/-7----5------5-----|
-3/-5---3/-5---3/-5---3/-5------------------|

El solo está en LA dórico. Podeis construir la escala a partir de este patrón:

1ª posición
-|-----|--•--|-----|--•--|--•--|-
-|-----|--•--|-----|--•--|--•--|-
-|--•--|--•--|-----|--•--|-----|-
-|--•--|--•--|-----|--•--|-----|-
-|-----|--•--|-----|--•--|-----|-
-|-----|--•--|-----|--•--|--•--|-
..........5tr

El solillo del final:
----------------------------------------------------------------------------
----------------------------------------------------------------------------
----12-----10-----12-----10-----12------10----9----10----9----10-
-12----12-----12-----12-----12-------10----10--10----10---10----
----------------------------------------------------------------------------
----------------------------------------------------------------------------

--------------------------------------------------------------------|
--------------------------------------------------------------------|
----12---10---12---10---12------12---11---12---11---12--|
-12---12---12---12---12------12---12---12---12---12-----|
--------------------------------------------------------------------|
--------------------------------------------------------------------|

:brindis:

http://www.guitarmonia.es/intervalos-musicales/intervalos-en-la-guitarra/
http://www.pianoaventura.com/documentos/curso_completo_de_teoria_de_la_musica.pdf
http://www.all-guitar-chords.com/guitar_scales.php
http://www.discoverguitaronline.com/

Subir
#5 por les paul studio el 12/05/2011
Si más o menos eso ya lo tenía sacado, pero alguna cosilla puedo aprovechar, muchas gracias :)
Subir
#6 por racafe el 18/05/2011
aqi dejo en byn
Subir
Respuesta rápida

Regístrate o para poder postear en este hilo