Sobre acordes y Arpegios

Baneado
#1 por overkill53 el 08/06/2011
Un Arpegio es un acorde tocado las notas por separado no? como paso ese Arpegio a Sweep picking, osea toco las notas por seprado usando barrido o tengo que agregar mas notas?

No se si me explico bien. GRACIAS
Subir
#2 por Pasando pantalla el 08/06/2011
Un simple arpegio mayor consta igual que el acorde de los intervalos 1 3 5 pero a diferencia del acorde hay que tocar estos intervalos seguidos. Por ej MImay 1MI 3SOL# 5SI. Si lo tocamos en 5 cuerdas queda así (Los números de abajo son los intervalos):
|-------------7-12-7---------------|
|----------9-------------9----------|
|--------9-----------------9--------|
|---6-9----------------------9-6---|
|-7-------------------------------7-|
|------------------------------------|
--1-3-5-1-3-5--1--5-3-1-5-3-1

MIm es 1 b3 5= MI SOL SI.
|----------------7-12-7-----------------|
|-------------8-------------8------------|
|----------9------------------9----------|
|-------9-----------------------9--------|
|-7-10----------------------------10-7-|
|-----------------------------------------|
--1-b3-5-1-b3-5--1-5-b3-1-5-b3-1

Lo mismo pasa con los de 3 cuerdas.
No sé si querías una respuesta más amplia.

http://www.guitarmonia.es/intervalos-musicales/intervalos-en-la-guitarra/
http://www.pianoaventura.com/documentos/curso_completo_de_teoria_de_la_musica.pdf
http://www.all-guitar-chords.com/guitar_scales.php
http://www.discoverguitaronline.com/

Subir
Baneado
#3 por overkill53 el 08/06/2011
Oh, te agradesco por la respuesta igual en teoria musical todavia no llege a la parte de Intervaloes, te agradesco, solo me queda estudiar mas igual si alguien tiene una otra respuesta es bienvenida
Subir
#4 por Pasando pantalla el 08/06/2011
Esto de los intervalos es muy pero que muy necesario, amigo. Con ellos podrás construir todas las escalas, acordes y arpegios que se te antojen por todo el mástil. Además, en el mástil tienen una característica que seguro que te gusta: igual que los patrones de escalas, diagramas de acordes y cualquier digitación de cualquier lick ó solo entero son movibles por todo el diapasón. Fíjate en estos 2 diagramas y empieza a superponer escalas, acordes y arpegios. El Rincón del Guitarrista - Acordes Arpegios Escalas

http://www.guitarmonia.es/intervalos-musicales/intervalos-en-la-guitarra/
http://www.pianoaventura.com/documentos/curso_completo_de_teoria_de_la_musica.pdf
http://www.all-guitar-chords.com/guitar_scales.php
http://www.discoverguitaronline.com/

Subir
#5 por Ruben Yei! el 09/06/2011
Claudi escribió:
Un simple arpegio mayor consta igual que el acorde de los intervalos 1 3 5 pero a diferencia del acorde hay que tocar estos intervalos seguidos. Por ej MImay 1MI 3SOL# 5SI. Si lo tocamos en 5 cuerdas queda así (Los números de abajo son los intervalos):
|-------------7-12-7---------------|
|----------9-------------9----------|
|--------9-----------------9--------|
|---6-9----------------------9-6---|
|-7-------------------------------7-|
|------------------------------------|
--1-3-5-1-3-5--1--5-3-1-5-3-1

MIm es 1 b3 5= MI SOL SI.
|----------------7-12-7-----------------|
|-------------8-------------8------------|
|----------9------------------9----------|
|-------9-----------------------9--------|
|-7-10----------------------------10-7-|
|-----------------------------------------|
--1-b3-5-1-b3-5--1-5-b3-1-5-b3-1

Lo mismo pasa con los de 3 cuerdas.
No sé si querías una respuesta más amplia.



Una cosilla, siempre tienen que estar ordenados, siempre tiene que ser 1 b3 5? o puedo comenzar por la quinta despues la tonica y despues la tercera menor?

Por ejemplo el acorde de A, Esta formado por A C E, entonces mi puedo comenzar por ejemplo el arpegio por C? contal tenga las mismas notas estaria bien no?
Subir
#6 por Pasando pantalla el 09/06/2011
Todo es cuestión de probarlo. Yngwie toca arpegios de 3 cuerdas en distintas posiciones lo cuál significa que puedes tocar empezando desde cualquiera de los 3 intervalos 1 3 5 ó 1 b3 5. Por si no tienes te paso un link para que te puedas hacer algunas progresiones y vas probando. Piensa que al fin y al cabo acabarás tocando como a tí mejor te suene. Key Chords
Ahí van estos 3 arpegios y los 3 son el mismo F#m. El primero empieza por la tercera menor en la primera cuerda, el segundo empieza por la quinta en la primera cuerda, y el tercer arpegio empieza por la tónica en la primera cuerda.

|-5-2--------2-9-5------5-14-9------------9---
|------2---2--------7--7---------10----10------
|--------2------------6---------------11----------
|---------------------------------------------------
|---------------------------------------------------
|---------------------------------------------------

http://www.guitarmonia.es/intervalos-musicales/intervalos-en-la-guitarra/
http://www.pianoaventura.com/documentos/curso_completo_de_teoria_de_la_musica.pdf
http://www.all-guitar-chords.com/guitar_scales.php
http://www.discoverguitaronline.com/

Subir
Respuesta rápida

Regístrate o para poder postear en este hilo