S.H ¿Slap Harmonic?

#1 por xuturk el 02/08/2010
Hola a todos de nuevo, hacia mucho que no pasaba por aqui jeje, pues bien os comento, estoy intentando tocar un tema muy avanzado para mi nivel, pero esto siempre ha hecho que mejore bastante mas rapido que tocando cosas mas simples, el caso es que con el guitar pro en la tablatura pone S.H en algunas notas, y son harmonicos, el problema es que hago un harmonico normal, tocando un poco con el dedo de la mano derecha como les hago siempre y no consigo que salga el mismo sonido, he buscado y he encontrado que peude ser Semi Harmonic o Slap Harmonic, en ambos casos no se lo que es ni como se ejecuta, la cancion que estoy intentando tocar es Mirror of Madness del grupo Norther, en la primera parte del solo es donde vienen esas notas.

Muchas gracias y un saludo!
Subir
Baneado
#2 por Odio al Venereas el 02/08/2010
El slap es una tecnica de bajo que tambien puedes meter en la guitarra, no soy un entendido en el bajo pero creo que se trataba de coger la cuerda entre los dedos pulgar y indice de la mano habil, y tirar de esa cuerda (tampoco tires mucho, no la vayas a cortar por bestia). Osea consiste en pellizcar.

Firma libre: Imaginala a tu gusto

Subir
#3 por jebi el 03/08/2010
Puede ser squeal harmonic, no se como explicarte en que consiste xD. Si eso busca videos de youtube, o seguro que hay algun post sobre esos harmonicos aqui.
Subir
#4 por LoN83 el 03/08/2010
Solo se decirte que en el Guitar Pro aparece ese tipo de armónico S.H y lo llaman Semi Armónico. :saludo:
Subir
#5 por xuturk el 03/08/2010
Muchas gracias a todos, si lo vi en guitar pro, por eso no sabia tampoco cual era de todos, ahora buscare informacion sobre esa tecnica a ver que veo jeje
Muchas gracias a todos
Un saludo
Subir
#6 por stracciatela el 03/08/2010
Slap harmonic a mi me encanta hacerlo con la guitarra acustica y te digo suena genia tocar un acorde y tocar las notas sueltas con los harmonicos
Como hacerlo? Sencillo
tocas el acorde por ejemplo Fa mayor

---1---------------------------------------------------------
---1-----------------------------------------------------------
---2------------------------------------------------------------
---3-------------------------------------------------------------
---3------------------------------------------------------------
---1-------------------------------------------------------------


Ahora en los trastes superiores, localizas en la misma cuerda, la misma nota una octava mayor que en este caso serian estas
---13---------------------------------------------------------
---13-----------------------------------------------------------
---14------------------------------------------------------------
---15-------------------------------------------------------------
---15------------------------------------------------------------
---13-------------------------------------------------------------

Vale, ahora manteniendo con la mano izquierda el acorde
con la mano derecha, con cualquier dedo, "golpeas" (slap) esos trastes de la octava superior... y sonaran los harmonicos


P.D:Tambien lo puedes hacer mas bruto pero tb mas practica, golpeando en seco con la mano entera encima la zona del acorde en la octava superior
Subir
#7 por xuturk el 04/08/2010
fuf, mirando al final vi los squeal harmonics y creo que son los que mas se parecen a lo que quiero, pero son mas o menos los que sabia hacer, solo que mi guitarra no debe de sonar o algo por que chilla pero ni aguanta tanto sonido ni llega a tanta agresividad.

Gracias tambien Stracciatela, pero creo que ese no es el harmonico que busco xD le veo muy complicado pero voy a intentar sacar el sonido que dices a ver que tal aunque como te digo le veo algo dificil jeje
Muchas gracias a todos un saludo :)
Subir
Respuesta rápida

Regístrate o para poder postear en este hilo