Rock Discipline, cuanto tiempo de practica?

#1 por gazzie el 26/06/2010
hola alguien hizo el libro de petrucci? Mejoraron? queria saber cuanto tiempo hay q dedicarle a hacer este ejercicio?cuantos minutos!o cuantas veces hay q tocarlos? ejercitando mientras veo los partidos del mundial vale? (ejemplo 11)

[code] Tempo = 60
Example 11 (Fragment 1)
> > > >
|------3------| |-------3-------| |--3--| |--3--|
E E E E E E E E E E E E W
E||--------------------------------------------------------|-------------------|
B||--------------------------------------------------------|-------------------|
G||--4----------5--7--4------------5--7--4--5--7--4--5--7--|-------------------|
D||--------------------------------------------------------|-------------------|
A||--------------------------------------------------------|-------------------|
E||--------------------------------------------------------|-------------------|


Example 11 (Fragment 2)
> > > >
|------3------| |-------3-------| |--3--| |--3--|
E E E E E E E E E E E E W
--------------------------------------------------------|-------------------|
--------------------------------------------------------|-------------------|
-------------------4------------5--7-----------4--5--7--|-------------------|
--4----------5--7---------------------4--5--7-----------|-------------------|
--------------------------------------------------------|-------------------|
--------------------------------------------------------|-------------------|
[/code]



pd: hay muchos fragmentos en ese ejercicio, solo puse 2.
:leyendo: :oops::no_lo_se:

visita mi blog !!!!. es que la actualizo todo los dias y no entra nadie!!
Para el que lleva zapatos, es como si toda la tierra estuviera cubierta de cuero. proverbio persa.

Subir
#2 por studed el 26/06/2010
Hazlo hasta que te suene limpio, bonito y a la velocidad indicada o la que desees =).


PD: no sirve mucho estudiar viendo los partidos jejeje
Subir
#3 por steve506 el 26/06/2010
saca un rato para hacerlos mientras estás concentrado....siempre a una velocidad a la que te salga perfecto, si eso significa darle muy lento, pues que asi sea.

Por otra parte, es muy bueno eso de tocar mientras ves partidos o una pelicula, ya que tu cabeza está en otra cosa...y eso hace que aquello que tocas se te vuelva inconsciente, como es la idea de dominar el instrumento. Pero por supuesto la práctica bien enfocada con concentracion es primordial.

No comparto tus ideas, pero moriría por defender tu derecho a expresarlas.

Subir
#4 por santiago21 el 27/06/2010
Tal como dijo steve, practicar mirando partidos de futbol, peliculas, series y esas cosas es genial, porque no te aburre y podes practicar muuuucho tiempo sin aburrirte (dependiendo de que haya en la tele :P)
Seamos sinceros, por mas amantes que sean de la guitarra, a ustedes les divierte estar en silencio sin ver nada tocando algun ejercicio medio choto? (hablando por lo menos de cosas iniciales, ejercicios de pua alternada y esas cosas), a mi por lo menos me aburre muchisimo hacer esos ejercicios en silencio durante mucho tiempo, un rato va bien, pero mucho tiempo me aburro y tengo la necesidad de hacer alguna otra cosa, solucion?, prendo la tele y practico los ejercicios mirando los simpsons :P
Subir
#5 por mega_deth el 27/06/2010
jaja cierto,de echo yo solo practico una hora encerrado en mi bodega y las otras tres mientras veo tele,pero hay le doy lento todo el rato jeje,por cierto el rock discipline es muy útil,practica hasta
que te salga limpio y a la velocidad normal,suerte.

cual es la diferencia entre un true heavy y un reggaetonero?la música.

Subir
Respuesta rápida

Regístrate o para poder postear en este hilo