Revolution by the beatles

#1 por jendrix18 el 14/09/2011
Hola guitarreros, soty un fanatico de los beatles, pero la gran mayoría de las veces no encuentro las tablaturas originales o similares al de las canciones, ahora estoy intersado en aprenderme revolution pero las tabs que encuentro no son ni de asomo lo mas parecido a la canción y he ahí vuestra ayuda.
Subir
#2 por ivanita el 21/10/2011
hola jendrix18 !! a mi tambien me fascinan los beatles, soy re fanática... mira, es un poco complicado conseguir tab de ellos yo tengo unos pares

Intro de Here Comes The Sun

1.2---0--2---2--0-----------0---------2---0-2--2--0------2-0---
2.--3-------3------3—0--3--3-0---------3----3------3-0------3-2-
3.-------------------------------------2-----------------------

While My Guitar Gently Weeps

E|-------------------------------10------10-12------------10-----------10--------10-----------------------------
B|-10----12-12--13-13---------13------------13-------------12--------10---------10------9------------------
G|--------------------------------------------------------14------------12--------11----------9----------------------
D|----------------------------------------------------------------------------------------------------------------------
A|----------------------------------------------------------------------------------------------------------------------
E|-----------------------------------------------------------------------------------------------------------------------

E|----------------------------------0------------------|
B|------0-1-----0-1---0-1-3-1----1---0----------|
G|---2------2-------2------------------2----2-0-2-|
D|-2--------------------------------------------------|




E|----------------------------------0--------------|
B|------0-1-----0-1---0-1-3-1---1---0-----1--|
G|---2------2-------2-----------------2---2-0----|
D|-2------------------------------------------|

I don't know...

E|-------4-2-0-----------0-----------0-----------|
B|-2-0-2---------2-0-2---2-0----0---2--0-----|
G|---------------------------------2----------------|
D|---------------------------------------------------|


y si queres los acordes hay una revista que se llama "para tocar" que tiene el cancionero, los acordes y en que momento va de la cancion... espero que te haya servido!

saludos
Subir
#3 por jendrix18 el 22/10/2011
Gracias por este aporte, pero ya estoy servido de tablaturas que llegan a ser practicamente las originales.Y de no se si sabrás que hay un programa que te dice como tocar las canciones, el guitar pro.
Subir
#4 por ivanita el 23/10/2011
no! no sabia... me lo pasas? :P
Subir
#5 por jendrix18 el 23/10/2011
Lo que podrías hacer tú es descargarlo, no es tan difícil y luego te recomiendo que mires en youtube cómo funciona para que te hagas una idea, por último para buscar las canciones que quieras aprenderte, sea de quien sea, búscalas en 911tabs, pero no te fíes del todo de estas, ya que son una aproximación certera o equivocada. Y espero que aprendas muchas de las canciones de los beatles.
Subir
#6 por jam-d el 05/11/2011
Mira a ver si te ayuda esto:



En mi opinión esta web tiene arreglos muy realistas, en general.
Hay otra web con información aún más asequible:

Subir
#7 por jendrix18 el 05/11/2011
Gracias por este aporte.
Subir
#8 por jam-d el 06/11/2011
De nada, man. Pero echa un vistazo a hilos específicos de The Beatles como este (aunque esta medio muerto):

http://www.guitarristas.info/foros/the-beatles/85415/pagina8

No es que se mueva mucho, de todas formas.
:guitarrista:
Si necesitas alguna canción Beatle, no te cortes...
Subir
#9 por guitarraco el 06/11/2011
muy bueno el video de Across the Universe!

http://www.guitarristico.com/
Subir
Respuesta rápida

Regístrate o para poder postear en este hilo