Quisiera aprender la tecnica de Chicken picking...

#1 por javiersanchez el 16/11/2008
Hola a todos,

Estoy un poco liado con esa tecnica de pua y dedos, y me gustaria saber si alguna alma caritativa tiene ejercicios o licks para desarrollar esta técnica. Es que cada vez que escucho a Danny Gatton, Albert lee, Johny Hiland o incluso a Zakk Wilde,pues alucino y quiero saber más acerca de como tocar el chicken picking

gracias por adelantado
Subir
#2 por annyemilia2 el 18/11/2008
man aki te paso 10 riffs de chicken picking


1.
p p
E ||-----/\--||---||-----/\--||----||--------||----||---------||--------------|
B ||----3-0--||---||----3-0--||----||---0-0--||----||----0----||--------------|
G ||----3-0--||x5-||----2-0--||x5--||---2p0--||x5--||----0----||x5----3/4-----|
D ||--5------||---||--4------||----||-3------||----||--2---p--||------2/3-----|
A ||---------||---||---------||----||--------||----||---------||----------3---|
E ||---------||---||---------||----||--------||----||---------||--------------|


2.
p
/ \
E ||--10/11----11\10----10\9-----9---------7-9-7---7-10-9-7-------------|
B ||--11/12----12\11----11\10----10--7-8-9-------9----------9-7--0------|
G ||--------13-------12-------11--------------------------------9-------|
D ||--------------------------------------------------------------------|
A ||--------------------------------------------------------------------|
E ||--------------------------------------------------------------------|





3.
H P
E ||-/-\--0--/\----H----------------------------------------------------------------|
B ||-3-4----2-0--/--\---0---P-------------------------------------------H-----------|
G ||------------0-1-2------/-\----H-------P----------------------------/-\-4-4/7----|
D ||----------------------2-1-0--/-\--0--/-\----h--------------0-2-0--4-5-6-6-------|
A ||----------------------------0-1-2---2-1-0--/\--------0-1-2----------------------|
E ||------------------------------------------3-4-0--3-4----------------------------|


4.
A C / / / / D / / / / A (14 traste)
E ||-*----------------------------*-------*----------*----------|
B ||-*---h-2---2--h--2---2--h--2--*-------*----------*----------|
G ||-*--/\-2---2-/\--2---2-/\--2--*-------*----------*----------|
D ||-*-2-5---2---2-5---5---4-5----*-------*----------*----------|
A ||------------------------------------------------------------|
E ||------------------------------------------------------------|

5.

E ||-----------------------------------------------------9--7----------h------------------------------------------------|
B ||-----3----4---5-5---6---7-7----8-----9--9-----10--10-10-8---------/\------------------------------h-------p---------|
G ||--3/4--4/6-6/7-7-7/8-8/9-9-9/10-10/11-11-11/12--12--------9-8-7-0-5-6-------------h-----------h--/-\--0--/-\--------|
D ||----------------------------------------------------------------------7-5--------/\------h---/\-0-1-2---2-1-0-------|
A ||-------------------------------------------------------------------------7-6-5-0-3-4----/\--0-3---------------3--0--|
E ||------------------------------------------------------------------------------------5-0-3-4-------------------------|


6.
E ||------------------------------5-7-5-5/9--------------|
B ||-----------8-7-------5-7-5-6-7-7-7-7-----------------|
G ||-------7-6----7-4-5-6--------------------------------|
D ||------5---7------------------------------------------|
A ||---3-7-----------------------------------------------|
E ||--5--------------------------------------------------|


7.
E ||:----h-------1------1-------3-1-----------------------------|
B ||:---/-\--3------5-----3---1^---1r---------------------------|
G ||:--2-3-4---4--4---4---------------3---0--3^-0---3-2-0-0-0---|
D ||:----------------------------------0-3-3-----0-3-----3--3/5-|
A ||:-----------------------------------------------------------|
E ||:-----------------------------------------------------------|


8.
E ||--------10-9--7------------p---------------------------|
B ||--------11-10-8-----5-3---/\---3^----------------------|
G ||-----8----------8---5-3--5-3---3^----------------------|
D ||---9--9---------7^-----------5----5\-------------------|
A ||-------------------------------------------------------|
E ||-------------------------------------------------------|

9.

E ||:--6/7-7\5-5---2/3-0----------------p------------------------------------|
B ||:--7/8-8\6-6---2/3-0-2/3-0---h----/--\-------p---------------------------|
G ||:-----9---7----------3/4-0--/\-0-3-2-0---0--/-\----------------/h\-/p\---|
D ||:--------------------------0-3^--------3^--2---0--/h\---/h\---0---2--0---|
A ||:------------------------------------------------1--2--0-1-2-------------|
E ||:-----------------------------------------------------3------------------|

E ||:----------------------------7\------------------------------------------|
B ||:----------------------------8\------------------------------------------|
G ||:-------0-3p0-0-----------7h9--------------------------------------------|
D ||:--0h2/5-5---5----0--5-7/9-----------------------------------------------|
A ||:----------------2--7----------------------------------------------------|
E ||:---------------3--------------------------------------------------------|


10.

3x 3x
E ||-----3--3----|-------|------------------------------------------------------------|
B ||-----0--0----|---0---|------------------------------------------------------------|
G ||--0h3--3mute-|---3p--|------------------------------------------------------------|
D ||-------------|--2-p--|------------------------------------------------------------|
A ||-------------|-------|------------------------------------------------------------|
E ||-------------|-------|------------------------------------------------------------|

3x 3x 3x
E ||----------|-----------|------------|------------------|---------------------------|
B ||---12p0---|---11p0----|---10p0-----|------------------|--7h8p7-10^--bend 2 traste--|
G ||-----12p0-|------12p0-|------12p0--|--back to 1st riff|--7h9p7-10^----------------|
D ||-15-------|-14--------|-13---------|------------------|---------------------------|
A ||----------|-----------|------------|------------------|---------------------------|
E ||----------|-----------|------------|------------------|---------------------------|

espero que te sirvan

saludos
Subir
#3 por annyemilia2 el 18/11/2008
srry man me quedo mal el 5 ..


igual te paso el tab en block de notas
Archivos adjuntos:
Subir
#4 por benlly123 el 18/11/2008
ola man como anda

aki te dejo 10 ejercicios de chicken picking

aslo lento y buscale el ritmo

suerte :D
Archivos adjuntos:
Subir
Baneado
#5 por Odio al Venereas el 22/11/2008
coño eso existe? alguien me lo explica porfavor?

Firma libre: Imaginala a tu gusto

Subir
#6 por pharaoh76 el 12/12/2009
ammm..... RAYOS!!!!!!!!!!!
no sabia que existiera esa tecnica.... concuerdo con avkho
Subir
Baneado
#7 por edgar_rg el 12/12/2009
Perdon por el off-topic pero hay muchos que creen que el Chiken y hybrid es diferente pero es lo mismo :D, se que es estupido decir esto pero yo antes creia que era diferente y espero ayudar a alguien que no sepa :p xDD

Nunca me cae mal un +1 es enserio! xDD
Mi unico amigo es la guitarra

Subir
Respuesta rápida

Regístrate o para poder postear en este hilo