quien me pasa esta tab

#1 por infectedrfg el 17/09/2010
antes que nada un saludo a todos :saludo:
bueno como soy nuevo en esto de la guitarra escuche las canciones durmiendo con la luna de elfante y angel tambien de elefante y no las oego muy dificiles pero el problema es que no encuentro el solo de ninguna de las dos canciones y queria ver si alguien me lo podia pasar por que encuentro los puros acordes y esos ya me los se lo que quiero es la tab del los solos bueno gracias :D :D
Subir
#2 por thereaver el 17/09/2010
Ok, aqui te dejo los enlaces a la pagina de Lacuerda.net:
Angel chords, Acordes Elefante
Durmiendo con la luna chords, Acordes
Subir
#3 por Jaimito Pagina el 18/09/2010
Hola aqui estan:

angel:
--2----------------|-------0--L---0----0-----0----0---|
-------------------|----------------------------------|
-------------------|----------------------------------|
-------------------|----------------------------------|
-------------------|----------------------------------|
-------------------|----------------------------------|

--0-------------------------|-------------------4----4--|
-----4-----2--L---2----L-0--|--L--------L---L---5----5--|
----------------------------|---------------------------|
----------------------------|---------------------------|
----------------------------|---------------------------|
----------------------------|---------------------------|

--4--4---L---4-------4-----4--|--L-------0---L-4-0---0----------|
--5----------5---L---5-----5--|--L--2----2---L---7-----2--2-----|
------------------------------|-----2-----------------------2---|
------------------------------|---------------------------------|
------------------------------|---------------------------------|
------------------------------|---------------------------------|

--4----4----4---4--L----4---L------|------------4-------0----|
--5----5----5---5--L----5---L------|-------5----5-------7----|
-----------------------------------|-----------------4-------|
-----------------------------------|-------------------------|
-----------------------------------|-------------------------|
-----------------------------------|-------------------------|

--0-------------7----|--L--------L-----------|-------------------7----|
--5------------------|-----------------------|--4----L----------------|
--6------6-----------|-----------------------|------------4-----------|
---------------------|-----------------------|------------------------|
---------------------|-----------------------|------------------------|
---------------------|-----------------------|------------------------|

--L--------L-----------|----------------------------|
--------------------7--|--9---L---9--------9-----9--|
-----------------------|--9-------9---9----9-----9--|
-----------------------|-------------11-------------|
-----------------------|----------------------------|
-----------------------|----------------------------|

---------------------------|--12----L------------------|
--L---9--7--9---------9----|-------------17------------|
--L---9--8--9----L----9----|-------------20------------|
---------------------------|---------------------18----|
---------------------------|---------------------------|
---------------------------|---------------------------|

------------------------|------------------------|------------------------|
------------------------|--4--------L---L-2----L-|--L--------L--L---------|
------------------------|------------------------|------------------------|
--L--------L---L--------|------------------------|------------------------|
------------------------|------------------------|------------------------|
------------------------|------------------------|------------------------|

----------0-------------|-----4---L---4------L-2----|-------2----0--2----0--|
--2---L--------2--------|--L------------------------|--2--------------------|
------------------------|---------------------------|-----------------------|
------------------------|---------------------------|-----------------------|
------------------------|---------------------------|-----------------------|
------------------------|---------------------------|-----------------------|

--L----2----4------2----|------------4--2----4--|--L--2----4------2-----|
------------------------|--2----4----5--4----5--|--L--4-----------------|
------------------------|-----------------------|-----------------------|
------------------------|-----------------------|-----------------------|
------------------------|-----------------------|-----------------------|
------------------------|-----------------------|-----------------------|

--------------------------|-------------4--------L--|--2----4----2--4----------|
--2----4----2--4---L---2--|--L--4---L-2-------------|--4------------------2--L-|
--1-----------------------|-------------------------|--4-----------------------|
--------------------------|-------------------------|--4-----------------------|
--------------------------|-------------------------|--------------------------|
--------------------------|-------------------------|--------------------------|

-----4-----2-4--L----4--2--L----|--0---L---2----0--2----0--|
--L-----------------------------|--2-----2------2--2----2--|
--------------------------------|--2---L-------------------|
--------------------------------|--------------------------|
--------------------------------|--4---L-------------------|
--------------------------------|--------------------------|

--L--2----4------2----|--2----4----2--4---L---0--|--L--2----4------2--L----|
--L--2----2-----------|--2-----------------------|-------------------------|
----------------------|--1-----------------------|-------------------------|
----------------------|--------------------------|-------------------------|
----------------------|--------------------------|-------------------------|
----------------------|--------------------------|-------------------------|

--7--7--0----0--7--0------7--|--L--7--7--0-----0----0-------|
--5-------------5---------5--|--L--5------------------------|
--6--6--6----6--6--6--6---6--|--L--------6-----6----6--L----|
-----------------------------|------------------------------|
-----------------------------|------------------------------|
-----------------------------|------------------------------|

--2--4----4----4--4--4---4---4--|--L----4-4----2---L---2--4-----|
--4--4----4----4--4--4---4---4--|--L----4------4-------4--------|
--4-----------------------------|-------------------------------|
--------------------------------|-------------------------------|
--------------------------------|-------------------------------|
--------------------------------|-------------------------------|

--2-----4---L---2--4---L---2--|--L----4-----2---L---2----4-----|
------------------------------|--------------------------------|
------------------------------|--------------------------------|
------------------------------|--------------------------------|
------------------------------|--------------------------------|
------------------------------|--------------------------------|

--4-----0-4---L-2----4---L-2--L-|--L---2----4--------L-----|
--7---L---------4--L-5---L-4--L-|--L-----4--5--------L-----|
--8---L-------------------------|--------------------------|
--------------------------------|--------------------------|
--4---L-------------------------|--------------------------|
--------------------------------|--------------------------|

--7--7--0----0--7--0------7--|--L--7--7--0-----0----0-------|
--5-------------5---------5--|--L--5------------------------|
--6--6--6----6--6--6--6---6--|--L--------6-----6----6--L----|
-----------------------------|------------------------------|
-----------------------------|------------------------------|
-----------------------------|------------------------------|

--2--4----4----4--4--4---4---4--|--L----4-4----2---L---2--4-----|
--4--4----4----4--4--4---4---4--|--L----4------4-------4--------|
--4-----------------------------|-------------------------------|
--------------------------------|-------------------------------|
--------------------------------|-------------------------------|
--------------------------------|-------------------------------|

--2-----4---L---2--4---L---2--|--L----4-----2---L---2----4-----|
------------------------------|--------------------------------|
------------------------------|--------------------------------|
------------------------------|--------------------------------|
------------------------------|--------------------------------|
------------------------------|--------------------------------|

--4-----0-4---L-2----4---L-2--L-|--L---2----4--------L-----|
--7---L---------4--L-5---L-4--L-|--L-----4--5--------L-----|
--8---L-------------------------|--------------------------|
--------------------------------|--------------------------|
--4---L-------------------------|--------------------------|
--------------------------------|--------------------------|

--2--4-----4--------L--|--L------------------||
--4--5-----5--------L--|--L------------------||
-----------------------|---------------------||
-----------------------|---------------------||
-----------------------|---------------------||
-----------------------|---------------------||

Durmiendo con la luna
|-------------|----------------|-----3----3----5--|--L--7----3----7--|----8----8---|
|-----5----5--|----6----6------|------------------|------------------|--5----5-----|
|--5----5-----|--5----5--------|--5----5----------|------------------|-------------|
|-------------|----------------|------------------|------------------|-------------|
|-------------|----------------|------------------|------------------|-------------|
|-------------|----------------|------------------|------------------|-------------|

----10----10--|----8----8--|----7----7----7---|----8----8---|----10----10--|----12----12---|
--6-----6-----|--5----5----|--5----5----------|--5----5-----|--6-----6-----|--8-----8------|
--------------|------------|------------------|-------------|--------------|---------------|
--------------|------------|------------------|-------------|--------------|---------------|
--------------|------------|------------------|-------------|--------------|---------------|
--------------|------------|------------------|-------------|--------------|---------------|

----10----10--|----8----8--|----8----8-----7--|
--6-----6-----|--5----5----|--5----5------5---|
--------------|------------|------------------|
--------------|------------|------------------|
--------------|------------|------------------|
--------------|------------|------------------|


ambas son de guitar pro las L no las tomes en cuenta

Mi canal:
http://www.youtube.com/VnG97

Subir
Respuesta rápida

Regístrate o para poder postear en este hilo