Power Chords o Acordes de Quinta

#1 por cali15 el 05/01/2011
hola tenia una duda sobre este tipo de acordes loque pasa es que no se si ala hora de ejecutarlos hay que rasguear todas las cuerdas de la guitarra o solo en lasque estas haciendo l acorde que creo k serianadamas 4, 5 y 6 cuerda por favor ayudenme no se como hacerlo
Subir
#2 por Pasando pantalla el 05/01/2011
Toca sólo las cuerdas del acorde. También hay power chords en las 2 cuerdas más agudas. Esto no cambia.
-----------------------------4-------- |--------------------5-----4----
----------------------5-----2--------- |--------------5----5-----2----
---------------4-----2---------------- |-------4-----4-----2----------
--------4------2---------------------- |--4----4-----2----------------
-4-----2------------------------------ |--4----2----------------------
-2------------------------------------ |--2----------------------------

O bien:
----------------------------2------- |--------------------5-----2------
---------------------3-----2-------- |--------------5----3-----2------
--------------2-----2--------------- |--------4-----2----2------------
-------2-----2---------------------- |--4-----2-----2-----------------
-2----2----------------------------- |--2-----2-----------------------
-2---------------------------------- |--2------------------------------

http://www.guitarmonia.es/intervalos-musicales/intervalos-en-la-guitarra/
http://www.pianoaventura.com/documentos/curso_completo_de_teoria_de_la_musica.pdf
http://www.all-guitar-chords.com/guitar_scales.php
http://www.discoverguitaronline.com/

Subir
#3 por oskaury el 05/01/2011
Bien explicado Claudi, pero también hay una especies de power chord o acordes 5ta, que se usan agregandole la octava, y estos llenan mas a la hora de tocar, ejemplos de estos son:

x----------------
x----------------
x----------------
-5---------------
-5---------------
-3---------------

Este acorde solo le agrega la octava, y solo se tocan las notas que pisas, obvio, y estos acordes desde 4 a la 2 cuerda serían así:

-----------------
-8---------------
-7---------------
-5---------------
-----------------
-----------------

Desde a 3 a la 1 serían así:

-----------------
-8---------------
-8---------------
-5---------------
-----------------
-----------------

Y desde la 5 a la 3 sería igual que de la 6 a la 4, Espero haberte ayudado.
Subir
#4 por Pasando pantalla el 05/01/2011
Es lo que he puesto en mis ejemplos de la derecha. :D Te falla el 3er ejemplo en la 3ª cuerda. La 5ª es en el traste 7 pero creo que querías escribirlo en otras cuerdas. Puedes modificarlo clicando EDITAR abajo a la derecha, modificas lo que quieras y clicas en GUARDAR.

http://www.guitarmonia.es/intervalos-musicales/intervalos-en-la-guitarra/
http://www.pianoaventura.com/documentos/curso_completo_de_teoria_de_la_musica.pdf
http://www.all-guitar-chords.com/guitar_scales.php
http://www.discoverguitaronline.com/

Subir
Respuesta rápida

Regístrate o para poder postear en este hilo