[Peticion] Tab Politica del Miedo- Soziedad Alkoholika y Doble v

#1 por adri122 el 18/05/2011
Alguien tiene las tabs de esta cancion ?

Gracias de antemano
Subir
#2 por Pasando pantalla el 25/05/2011
Hola, adri122.
La intro, las estrofas, los estribillos y la estrofa final estan en Cm locrio. El solo está en FAm, frigio.

Intro:
|--------------------------------|-------------------------------------|
|--------------------------------|-------------------------------------|
|--------------------------------|-------------------------------------|
|-5-5----3-3-6-8-8----6-6-6|-5-5----3-3-6-8-8----6-6-6-6-8|
|-3-3----3-3-4-6-6----4-4-4|-3-3----3-3-4-6-6----4-4-4-4-6|
|-3-3---------4-6-6----4-4-4|-3-3---------4-6-6----4-4-4-4-6|

Estrofas y estribillos.
||-------------------------------------------------|-------------------------------------------------------||
||-------------------------------------------------|-------------------------------------------------------||
||-------------------------------------------------|-------------------------------------------------------||
||-5-5---------------3-3-6-8-8----------6-6-6|-5-5--------------3-3-6-8-8------------6-6-6-6-8||
||-3-3-3-3-3-3-3-3-3-3-4-6-6-6-6-6-4-4-4|-3-3-3-3-3-3-3-3-3-4-6-6-6-6-6-6-4-4-4-4-6||
||-3-3--------------------4-6-6----------4-4-4|-3-3--------------------------------------4-4-4-4-6||


Puente
||-------------------------------||
||-------------------------------||
||--------3-5-5-5-6-6--------||
||-5-5---1-3-3-3-4-4-6-6-6||
||-3-3---1-3-3-3-4-4-4-4-4||
||-3-3-------------------4-4-4||

Solo
||------------------|------------------|--------------||--------
||------------------|------------------|--------------||--------
||-6----8--5------|-6----8----------|-8-----6-----||--------
||-4----6--3------|-4----6----8----|-6-----4-----||-6-6---
||-4----6--3------|-4----6----6----|-6-----4-----||-4-4---
||------------------|------------6----|--------------||-4-4---estrofa y puente.

1ª posición: 1er ó 13º traste.
-|--•--|--•--|-----|--•--|-----|-
-|--•--|--•--|-----|--•--|-----|-
-|--•--|-----|--•--|-----|-----|-
-|--•--|-----|--•--|--•--|-----|-
-|--•--|-----|--•--|--•--|-----|-
-|--•--|--•--|-----|--•--|-----|-
...1tr


Estrofa final
||-----------------------------------|------------------------------------||------|
||-----------------------------------|------------------------------------||------|
||--------------------------3-5-----|------------------------------------||------|
||-5-5----5-5----5-5----1-3----6|-5-5----5-5----5-5-----6-5-6-3||-5-5-|
||-3-3----3-3----3-3----1-3----4|-3-3----3-3----3-3-----4-3-4-1||-3-3-|
||-3-3----3-3----3-3------------4|-3-3----3-3----3-3-----4-3-4-1||-3-3-|



:brindis: :saludo:

http://www.guitarmonia.es/intervalos-musicales/intervalos-en-la-guitarra/
http://www.pianoaventura.com/documentos/curso_completo_de_teoria_de_la_musica.pdf
http://www.all-guitar-chords.com/guitar_scales.php
http://www.discoverguitaronline.com/

Subir
#3 por dragonslayer609 el 27/05/2011
es increible el trabajo que haces claudi.... :aplausos:

si tienes messenger o algo me gustaria que me agregaras para aprender algo mas de teoria y asi con un poco de esfuerzo sacar temas mas complicados....
todavia soy algo cazurro :(

si kieres me lo mandas por mp. sino pues no pasa nada. bastante ya es que leas el mensaje :)

Jamas un guitarrista es mejor que otro, solo diferente.
---------------------------------------------------
Mi canal de Youtube

Subir
#5 por adri122 el 04/06/2011
Claudi, como te lo curras tio, Muchas gracias :brindis:
Subir
#6 por arkandask27 el 01/10/2012
hola queria saber si la afinacion utilizada es la clasica (EBGDAE) o otra distinta. muchas gracias
Subir
Respuesta rápida

Regístrate o para poder postear en este hilo