Opera Magna - "Un sueño en un sueño" TAB

#1 por dragonslayer609 el 13/08/2010
Buenas, pues estaria genial que entre todos sacaramos esta cancion , de esta gran banda, ademas que no hay ninguna tab suya en internet.... por lo que estariamos orgullosos de ser los primeros de hacer 1. un saludo

lo unico que he encontrado es esta introduccion de "un sueño en un sueño" del album "poe"



La afinacion es estandart....pero hay que fijarse bien para sacar los primeros punteos.... saludos

Aqui dejo una linea de la entrada que mas me gusta, jeje, creo que esta bien, por lo menos a mi me suena bastante bien..... a seguir!


E-----------------------------|------------------------------------
B--------------10-11----------|--------10-------11----13------15~--
G------/12~-----------7~------|---/12-----12~----------------------
D-----------------------------|------------------------------------
A-----------------------------|------------------------------------
E-----------------------------|------------------------------------

E-----------------------------------------------------------------
B---13---15----17~----18-17---------------------------------------
G-----------------------------19-----14~--------------------------
D-----------------------------------------------------------------
A-----------------------------------------------------------------
E-----------------------------------------------------------------

-----------------------------------------------------------------
--15----13-------------------------------------------------------
---------------15-----17~----15------12~-------------------------
-----------------------------------------------------------------
-----------------------------------------------------------------
-----------------------------------------------------------------

venga que entre todos sacamos la cancion.... ANIMAOS!

Jamas un guitarrista es mejor que otro, solo diferente.
---------------------------------------------------
Mi canal de Youtube

Subir
#2 por dragonslayer609 el 21/08/2010
UP!--------------------

Jamas un guitarrista es mejor que otro, solo diferente.
---------------------------------------------------
Mi canal de Youtube

Subir
#3 por dragonslayer609 el 14/10/2010
UP!!!!! VENGA! Que esta cancion lo merece!

Jamas un guitarrista es mejor que otro, solo diferente.
---------------------------------------------------
Mi canal de Youtube

Subir
#4 por dragonslayer609 el 01/11/2010
Esta es la cancion original
http://www.youtube.com/watch?v=vMY7auVZ0AA&feature=related[/YOUTUBE] y pongo otro cover, esta vez del solo del "fuego de mi venganza" ---> [YOUTUBE]http://www.youtube.com/watch?v=J3u9JGGbrgM[/YOUTUBE] Por dios que alguien haga alguna tab entera de ellos, y si puede ser en guitar pro....[YOUTUBE]http://www.youtube.com/watch?v=vMY7auVZ0AA&feature=related[/YOUTUBE]

y pongo otro cover, esta vez del solo del "fuego de mi venganza" ---> http://www.youtube.com/watch?v=J3u9JGGbrgM[/YOUTUBE] Por dios que alguien haga alguna tab entera de ellos, y si puede ser en guitar pro....[YOUTUBE]http://www.youtube.com/watch?v=J3u9JGGbrgM[/YOUTUBE]

Por dios que alguien haga alguna tab entera de ellos, y si puede ser en guitar pro....

Jamas un guitarrista es mejor que otro, solo diferente.
---------------------------------------------------
Mi canal de Youtube

Subir
#5 por alberto-v el 21/11/2010
Hola gente, pues nada que casualmente entre aqui y vi que tratais de sacar este tema tambien, yo soy el del video de la camiseta de españa xD
si quereis , mandarme un email a mi cuenta, [email]alberto-vlc-90@hotmail.com[/email] , con vuestra direccion y yo os envio el tab de lo que tengo sacado, un saludo!
Subir
#6 por dragonslayer609 el 21/11/2010
pues etaria bien que te pusieras en contacto con "MrJpowerGuitar" que hace el cover del solo de la cancion "el fuego de mi venganza" el queria hacer el tab, y entre los dos lo hareis mas facil... yo ayudaria pero soy bastante novato todavia...

aqui te dejo el cover, es impresionante...

Jamas un guitarrista es mejor que otro, solo diferente.
---------------------------------------------------
Mi canal de Youtube

Subir
#7 por nicolasheumann el 23/11/2010
Esto es lo que yo he podido sacar a oido.. y suena mas o menos bien.. que les parece?

1)-----------------------------------------------------------------
2)-----------------------------------------------------------------
3------------------------------------------------------------------
4)-11-10-8-7-0-5-3-0-12-13-10-12-8-10-12-10-8-7-5-4-4-
5)------------------------------------------------------------------
6)------------------------------------------------------------------

E)-------------------------------------------------------------------
B)--------------------------------------------------------------------
G)--------------------------------------------------------------------
D)--9-8-7-12-10-8-7-5-4-5-9-8-7-8-9-11-13-12~--------------
A)--------------------------------------------------------------------
E)--------------------------------------------------------------------
Subir
#8 por dragonslayer609 el 25/01/2011
pues que esta bastante bien.... seguiremos sacando partes...

Jamas un guitarrista es mejor que otro, solo diferente.
---------------------------------------------------
Mi canal de Youtube

Subir
Respuesta rápida

Regístrate o para poder postear en este hilo