Necesito Ayuda

#1 por gittan el 18/04/2010
Bueno Toco guitarra hace 3 años , los 2 primeros años con profesores diferentes y ambos eran malos (lo digo por que no me enseñaban tecnica ,solo canciones que eran demasiado faciles) . Quisiera saber que tecnica me recomiendan practicar y si es posible como se hace dicha tecnica. Les agradesco de antemano
Subir
#2 por jcguitar el 20/04/2010
Pues si quieres empesar con algo mas tenico debes empezar con digitacion;
esto es tocando cada cuerda con tus cuatro dedos traste por traste sobre todo el
diapason. (cada circulo es un dedo(indice,medio,anular,meñique)cada linea una cuerda(e,a,d,g,b,e)...suerte.
-------------0--0--0--0--
------------0--0---0--0--
--------------0--0--0--0--
Subir
#3 por gittan el 21/04/2010
Tengo una duda con el tema "The trooper" de Iron Maiden . En una parte del punteo tengo que hacer esto

|-----------------------------------------------------------------|
|--12-h15----------12-h15----------12-h15----------12-h15---------|
|----------14b(16)---------14b(16)---------14b(16)--------14b(16)-|
|-----------------------------------------------------------------|
|-----------------------------------------------------------------|
|-----------------------------------------------------------------|

Ya se , es muy facil pero , no se si tocar el traste quince con el dedo meñique o anular , ya que mi dedo meñique esta demasiado tieso por que no lo uso para nada xD y quisiera saber con que dedo me conviene hacerlo
Subir
Respuesta rápida

Regístrate o para poder postear en este hilo