Necesito de su ayuda

#1 por matty17 el 27/07/2009
Bueno Les queria pedir
si esque alguien tiene el tab para guitar pro
de Fall out boy - Beat it
de verdad lo necesito tengo una presentacion en agosto
y necesitamos tocar esa cancion
ojala ayuden en lo posible
y sobre todo necesito el solo
pero no el de eddie van halen
si no el de john Mayer
porfavor ayudenme
Subir
#2 por snake plissken el 27/07/2009
Que onda casi no me llega esa rolla pero toma!

Solo:

Beat it - fall out boy
-------------------------------------------------------------------------------
Tabbed by: Spencer Myler

Tuning:E,B,G,D,A,D

e|-------------------------X-------------------------------------------------|
B|-----------------6-8-10---X-8/10-13p10-------------------------------------|
G|-------------5-7----------------------12-10-13\12-10\7-7------------------|
D|--7\6/7--5/7---------------------------------------------------------------|
A|---------------------------------------------------------------------------|
d|---------------------------------------------------------------------------|

e|-----8--------------------------------13-----------------------------------|
B|-8h10-9\8-8p6-8-6---------6-5------------15-15-----------------------------|
G|-----------------------5-7----7--13/14--------12p10------------------------|
D|--------------------5/7----------------------------12-12p10-12-12p10-12-12-|
A|---------------------------------------------------------------------------|
d|---------------------------------------------------------------------------|

e|X--------------------------------------------------------------------------|
B|-X3p1-3p1-3p1-3p1-1-3/15---------------------------------------------------|
G|-----3---3---3---3------14p12--12-14---------------------------------------|
D|-----------------------------15-----12-10-------/12------------------------|
A|-----------------------------------------12-10-8---------------------------|
d|---------------------------------------------------------------------------|


e|----6\5/6-6/8------10/12---5---8---10--12---13--15--17-/22-----------------|
B|---6-------------8---------tremelo picking above---------------------------|
G|--7-------------9----------------------------------------------------------|
D|-8------------10-----------------------------------------------------------|
A|---------------------------------------------------------------------------|
d|---------------------------------------------------------------------------|

| / slide up
| \ slide down
| h hammer-on
| p pull-off
| ~ vibrato
| + harmonic
| x Mute note

Toda la rolla:

Song: Beat It
Artist: Fall Out Boy

^v^ = bend up and down etc
! = pinched harmonic (Squealie)
~ = vibrato
* = Palm muted
x = Scratch
p = pull off
h = hammer on

===== Intro =====

Guitar 1
e--0-----------------------x-x-x-x-x-x-x-----------Bend a few notes in this main riff,---------|
B--0------DRUMS------------x-x-x-x-x-x-x------------------------sounds cool!-------------------|
G--0------------START------x-x-x-x-x-x-x-------------------------------------------------------|
D--0-----------------------x-x-x-x-x-x-x----------------3-----------------------3--------------|
A--0-----------------------x-x-x-x-x-x-x--------------0---5-5---/7-5-3-3------0---5-5--/7-5-3--|
D--0-----------------------x-x-x-x-x-x-x----/12\--0-3---------------------0-3------------------|


e-----------------------------------------------------------------|
B-----------------------------------------------------------------|
G--5--5--------------------------------------------------5--5--5--|
D--5--5--------3-----------------------3-----------------5--5--5--|
A--3--3------0---5-5---/7-5-3-3------0---5-5---/7-5-3----3--3--3--|
D--------0-3---------------------0-3------------------------------|

===== Verse =====


Guitar 1 - On the second through this chord progression, don’t palm mute.

e--------------------------------------------------------------------------|
B-------------------------------------------------------------------x-x-x--| X 2
G----------5-5-5-----------5-5-5---3-3-3---5-5-5------------------5-x-x-x--|
D--0-0-0---5-5-5---0-0-0---5-5-5---3-3-3---5-5-5---3-3-3---0-0-0--5-x-x-x--|
A--0-0-0---3-3-3---0-0-0---3-3-3---1-1-1---3-3-3---3-3-3---0-0-0--3-x-x-x--|
D--0-0-0-----------0-0-0---------------------------3-3-3---0-0-0----x-x-x--|
* * * * * * * * * * * * * * * * * * * * * * * *

Guitar 2 - Start playing the second time over Guitar 1’s chord progression.

e-------------------|
B-------------------| X A lot, listen to the song to know how many times.
G--7--10--7------7--|
D------------10-----|
A-------------------|
D-------------------|

===== Chorus =====

Guitar 1

e--------------------------| e------------|
B--------------------------| B------------|
G--------------------------| X 6 Then: G--5--5--5\--|
D--------3-----------------| D--5--5--5\--|
A------0---5-5---/7-5-3-3--| A--3--3--3\--|
D--0-3---------------------| D------------|


Guitar 2 - They play this bit live but you can’t here it very well on the recording.

This only takes as long as the main riff played once, play it as many times as the main riff.

e----------------------------------------------------------| e------------|
B----------------------------------------------------------| B------------|
G--14-14-14-14-14-14-14-14-14-15--12-12-12-12-12-12-12-12--| X 6 Then: G--5--5--5\--|
D--x--x--x--x--x--x--x--x--x--x---x--x--x--x--x--x--x--x---| D--5--5--5\--|
A--12-12-12-12-12-12-12-12-12-13--10-10-10-10-10-10-10-10--| A--3--3--3\--|
D----------------------------------------------------------| D------------|


===== Verse =====


Guitar 1 - On the second through this chord progression, don’t palm mute.

e--------------------------------------------------------------------------|
B-------------------------------------------------------------------x-x-x--| X 2
G----------5-5-5-----------5-5-5---3-3-3---5-5-5------------------5-x-x-x--|
D--0-0-0---5-5-5---0-0-0---5-5-5---3-3-3---5-5-5---3-3-3---0-0-0--5-x-x-x--|
A--0-0-0---3-3-3---0-0-0---3-3-3---1-1-1---3-3-3---3-3-3---0-0-0--3-x-x-x--|
D--0-0-0-----------0-0-0---------------------------3-3-3---0-0-0----x-x-x--|
* * * * * * * * * * * * * * * * * * * * * * * *

Guitar 2 - Start playing the second time over Guitar 1’s chord progression.

e-------------------|
B-------------------| X
G--7--10--7------7--|
D------------10-----|
A-------------------|
D-------------------|


===== Chorus =====

Guitar 1

e--------------------------| e------------|
B--------------------------| B------------|
G--------------------------| X 6 Then: G--5--5--5\--|
D--------3-----------------| D--5--5--5\--|
A------0---5-5---/7-5-3-3--| A--3--3--3\--|
D--0-3---------------------| D------------|


Guitar 2

e----------------------------------------------------------| e------------|
B----------------------------------------------------------| B------------|
G--14-14-14-14-14-14-14-14-14-15--12-12-12-12-12-12-12-12--| X 6 Then: G--5--5--5\--|
D--x--x--x--x--x--x--x--x--x--x---x--x--x--x--x--x--x--x---| D--5--5--5\--|
A--12-12-12-12-12-12-12-12-12-13--10-10-10-10-10-10-10-10--| A--3--3--3\--|
D----------------------------------------------------------| D------------|

===== Break Down =====


Guitar 1

e---------------------------------------------------------------------------|
B---------------------------------------------------------------------------|
G---------------------------------------------------------------------------|
D--0-0-0--0-0-0------0-0-0--0-0-0---------0-0-0--0-0-0--------0-0-0--0-0-0--|
A--0-0-0--0-0-0------0-0-0--0-0-0---------0-0-0--0-0-0--------0-0-0--0-0-0--|
D--0-0-0--0-0-0------0-0-0--0-0-0---------0-0-0--0-0-0--------0-0-0--0-0-0--|

Guitar 2

e---------------------------------------------------------------------------|
B---------------------------------------------------------------------------|
G---------------------------------------------------------------------------|
D--0-0-0--0-0-0------0-0-0--0-0-0---------0-0-0--0-0-0---7!---0-0-0--0-0-0--|
A--0-0-0--0-0-0------0-0-0--0-0-0--3~-5---0-0-0--0-0-0--------0-0-0--0-0-0--|
D--0-0-0--0-0-0------0-0-0--0-0-0---------0-0-0--0-0-0--------0-0-0--0-0-0--|

Guitar 1

e--------10-10------10-10------10-10------10-10------10-10------10-10--------------------------|
B--------10-10------10-10------10-10------10-10------10-10------10-10--------------------------|
G--------10-10------10-10------10-10------10-10------10-10------10-10--------------------------|
D--------------12~--------12~--------12~--------12~--------12~--------12~--0-0-0--0-0-0--------|
A--------------------------------------------------------------------------0-0-0--0-0-0--------|
D--------------------------------------------------------------------------0-0-0--0-0-0--------|


Guitar 2

e----------------------------------------------------------------------------------------------|
B----------------------------------------------------------------------------------------------|
G----------------------------------------------------------------------------------------------|
D--------0-0-0------0-0-0------0-0-0------0-0-0------0-0-0------0-0-0------0-0-0--0-0-0--------|
A--3~-5--0-0-0------0-0-0------0-0-0------0-0-0-3~-5-0-0-0------0-0-0------0-0-0--0-0-0--------|
D--------0-0-0------0-0-0------0-0-0------0-0-0------0-0-0------0-0-0------0-0-0--0-0-0--------|


===== Solo =====

e-----------------------------------------------------------------------------------------|
B------------------------------------13p10------------------------------------------------|
G-----------------------12^14--12^14-------12^14-10-12^14v12p10---------------------------|
D-----------10h12-12/15-------------------------------------------------------------------|
A--12--10~--------------------------------------------------------------------------------|
D-----------------------------------------------------------------------------------------|

\m/ -_- \m/ Juan \m/ -_- \m/

Subir
#3 por matty17 el 27/07/2009
gracias
pero el solo noes un poquitin corto?
Subir
#4 por vidres a la sang el 27/07/2009
Ya que andaba por 911 te he buscado la tab para Gpro como pedias.

No se si estara bien o no ya que nunca he escuchado el tema.

Para esta y otras tabs en Gpro que quieras visita 911Tabs - tabs search engine // 3,500,000 tabs. Guitar, bass, drums, guitar pro and power tabs! buscas el grupo/cancion y elijes en que formato y para que instrumento bajarla.

Un saludo :brindis:

Metalized Blood!!

Subir
#5 por matty17 el 27/07/2009
Muchas gracias
sera mas facil sacarlo
aunque igual sigue siendo dificil u.u
pero tengo timeh pa sacarloh
=D
de verdad muchas gracias
cualquier ayuda que necesiten avisenme
Subir
Respuesta rápida

Regístrate o para poder postear en este hilo