Mi Pequeño leccion de arpegios con tapping

#1 por -fred- el 14/03/2011
Mi pequeño lección de arpegios con tapping :)



demuestro rapido y despacio


Los Acordes son:

1)Gm7 con adicionados 9 y 4
2)Fmaj7
3)Ebmaj7 con adicionado 9

El sonido está en los dedos.
todamoscu.blogspot.com

Subir
#2 por MC_kleud el 14/03/2011
Está bien, como sugerencia otra vez podrias poner la cámara un poco más de frente

Taño, luego existo.
MI GRAN CURRADA
http://www.guitarristas.info/foros/luthieria-textil-adaptacion-funda-guitarra-v/84563

Subir
#3 por -fred- el 14/03/2011
Vale :)

Tabs:

-17-13-10--------------------------------------10-13----
------------------------------------------------
-----------17-12-10------------------10-12-17---------
--------------------------------------------------
----------------------17-13-10-13-17------------------
--------------------------------------------------


-13-12-8-------------------------------------8-12------------
-------------------------------------------------
-----------14-10-9-----------------9-10-14---------------
------------------------------------------------
--------------------15-12-8-12-15-----------------------
-----------------------------------------------------


-13-10-6--------------------------------6-10-------------
-----------------------------------------------------
---------12-8-7-----------------7-8-12-------------------
------------------------------------------------------
-----------------13-10-6-10-13---------------------------
-----------------------------------------------------

El sonido está en los dedos.
todamoscu.blogspot.com

Subir
#4 por Juanjo Pelegrín el 14/03/2011
muchas gracias compañero, buena técnica.
Subir
#5 por felito el 14/03/2011
Muy bueno el video..y nos dejas la tabs y todo, que generoso!!:D

REVIEWS EN ESPAÑOL(reviewsene):
http://www.youtube.com/reviewsene
http://www.facebook.com/reviewsene
http://www.instagram.com/reviewsene
http://www.twitter.com/reviewsene

Subir
#6 por MC_kleud el 14/03/2011
Way por las tablaturas

Taño, luego existo.
MI GRAN CURRADA
http://www.guitarristas.info/foros/luthieria-textil-adaptacion-funda-guitarra-v/84563

Subir
#7 por Andrés_Gándara el 14/03/2011
Bueno, el video no es nada didáctico, pero estoy seguro que a más de alguno con cierto nivel le será de utilidad y más apoyándose con las tabs.
Un saludo
Subir
Respuesta rápida

Regístrate o para poder postear en este hilo