Mi ejercicio favorito

#25 por berserkwolf el 06/02/2010
gracias por el aporte lo ensaye un rato y se siente bkn practicarlo :)
Subir
#26 por subvader12 el 15/02/2010
Re bueno tu ejercisio me va a ayudar mucho a soltar los dedos :D Gracias
Subir
#27 por fretsurfer el 25/02/2010
Genial!! ;)
Subir
#28 por surt el 26/02/2010
veremos como esta pero exportalo como GP4 porfas

pay an aye for wisdom

Subir
#29 por matias12 el 17/05/2010
me parecio muy bueno tu ejercicio lo voy a poner en practica.
gracias por tu aporte.
Subir
#30 por Hero of War el 27/07/2010
Una duda de principiante... alternate es tocando todas las notas con la pua no? i el sweep? haciendo hammers i pulls?
Subir
#31 por nicometal42 el 28/07/2010
alternate es eso, y sweep es el "barrido", te recomendaria que busques en youtube ;)
Subir
Baneado
#32 por jemidaba el 28/07/2010
gracias! ya veremos que tal! :D
Subir
#33 por stracciatela el 28/07/2010
Que tal si hacemos un post donde cada uno aporta su ejercicio preferido?

El mio para practicar sweeps es este
E-----------------------2-----1-------------------------------------------------
B------------------3--------------2---------------------------------------------
G--------------4----------------------3------------------------------5------
D----------3------------------------------4----------------------4----------
A------2--------------------------------------3--------------3---------------
E--1----------------------------------------------2-----2---------------------

Aver explico, al empezar hacemos un solo barrido(downstroke) y al llegar al final tras haber pasado la cuerda e fina , hacemos un barrido hacia arriba y despues subimos una posicion... no se si me explico
Subir
#34 por Hero of War el 28/07/2010
Stracciatela escribió:
Que tal si hacemos un post donde cada uno aporta su ejercicio preferido?

El mio para practicar sweeps es este
E-----------------------2-----1-------------------------------------------------
B------------------3--------------2---------------------------------------------
G--------------4----------------------3------------------------------5------
D----------3------------------------------4----------------------4----------
A------2--------------------------------------3--------------3---------------
E--1----------------------------------------------2-----2---------------------

Aver explico, al empezar hacemos un solo barrido(downstroke) y al llegar al final tras haber pasado la cuerda e fina , hacemos un barrido hacia arriba y despues subimos una posicion... no se si me explico


Te he entendido! y gracias por el ejercicio me va a venir muy bien
Subir
#35 por MetalStrat el 28/07/2010
gusta si si que gusta jeje

Facebook: https://www.facebook.com/herejiaband/
-- https://open.spotify.com/album/5k8IT0...
-- Contacto: herejiaband@gmail.com
-- Twitter: https://twitter.com/herejiaband
-- Instagram: https://www.instagram.com/herejiametal/

Subir
#36 por hjmp el 02/08/2010
Hola!
Muchas gracias por subir el ejercicio, quisas manana lo practique(Hoy no, no tenia ganas de tocar y para no perder la costumbre practique unos 45 minutos asi sea)

Saludos.

---¡Saludos!---

Subir
Respuesta rápida

Regístrate o para poder postear en este hilo