Me echais una mano con éstos sweeps?

#1 por dani_vh92 el 30/05/2011
Siempre me he preguntado como hay que hacerlos, si arrastrando el dedo, pulsando rápidamente o qué :roll:

Os los dejo en Negrita ;)

--19h15----------------------------15-22h19-------------------------19-|
--------15----------------------15----------20-------------------20----|
-----------16----------------16----------------19-------------19-------|
--------------17----------17----------------------21-17-17-21----------|
-----------------17-14-17----------------------------------------------|
-----------------------------------------------------------------------|

--22h19----------19-19h15----------15-15h10----------------------------|
--------20----20----------15----15----------12----------------------12-|
-----------19----------------16----------------12----------------12----|
--------------------------------------------------12----------12-------|
-----------------------------------------------------14-10-14----------|
-----------------------------------------------------------------------|

--12h9-----------------------9-12/17h12----------------------------12-|
-------10-----------------10------------14----------------------14----|
----------9-------------9------------------14----------------14-------|
------------11-------11-----------------------14----------14----------|
---------------12-12-----------------------------16-12-16-------------|
----------------------------------------------------------------------|


De los 3 sextagramas que he puesto, son el primero hasta la mitad (parece un acorde de E mayor) y el 2º y 3º a partir de la mitad (parece un acorde de A Mayor).

Muchas gracias :saludo:

Mis nenas: Ibanez RG320DXFM con DiMarzio Evolution, Marshall JCM2000 TSL 100, Pantalla Marshall 1922, Boss Digital Delay DD-3, Boss Chorus Ensemble CE-5, Boss Enhancer EH-2, Wah Wah Cry Baby CGB95

Subir
#2 por Ruben Yei! el 30/05/2011
Bueno yo los he intentado hacer y bueno se puede hacer haciendo ligados, en el primer 15,22h19 yo lo he hecho dandole al 22 con el dedo pequeño y pull off al dedo indice (19) despues cuando subes 21-1717-21 haciendo alternate, mas adelante el 14-10-14 puedes hacer pull-hammer aunque tambien con alternate y ya lo otro es ir cambiando rapido

;D
Subir
Respuesta rápida

Regístrate o para poder postear en este hilo