Libreria de licks

#25 por daktari el 08/01/2008
Muy buen trabajo! Necesito un poco de tiempo ahora para verlo todo, !se acabaron las vacaciones! pero prometo estar al tanto de tu interés Josep e intentaré subir algo.
Saludos



¡Menos mal que no somos mancos! Y&T

Subir
#26 por Ikazategi el 08/01/2008
wow!!

que currazo Josep!

la verdad esque esta muy interesante el topic... no he tenido tiempo de ojear todo, pero con calma ire hechandole un vistazo.. parece que hay buenas ideas..

por cierto, +1!!!

PD: hacia cuant oque no leia tablaturas asi con editor de texto... y como me cuesta!!!! jajaja

Reparación de equipos de Audio y amplificación
http://www.jonikazategi.com
http://www.facebook.com/ikazategi

Pol Granada Fase 2, Pabellón 12B
48530 Ortuella, Vizcaya

Subir
#27 por josep el 08/01/2008

Licks de varios grupos y estilos


Layla

Derek & The Dominos

-------------------------------------|
-------------------------------------|
-------------------------------------|
-----0-3-0---0--7-5-3------5-------7-|
-0-3-------3----5-3-1--0---3--0-3--5-|
-------------------------3-----------|

Satisfaction

Rolling Stones

--------------------------|
--------------------------|
--------------------------|
--------------------------|
-2-2--2--4-5--5--4--2-2---|
--------------------------|

My Generation

The Who

-------------------------------------|
-------------------------------------|
-------------------------------------|
-5-5-5-5--3-3-3-3--5-5-5-5--3-3-3-3--|
-5-5-5-5--3-3-3-3--5-5-5-5--3-3-3-3--|
-3-3-3-3--1-1-1-1--3-3-3-3--1-1-1-1--|

Roundabout

Yes

-----12^---7-5/7-5-3/2--5~----|
-----12^----------------------|
-----12^----------------------|
------------------------------|
------------------------------|
-12^--------------------------|

TNT

AC/DC

-----------------------|-----------------------|
-----------------------|-----------------------|
-1--------2----2----1--|-1------------------1--|
-2--------2----2----2--|-2--5---7---5-7-5---2--|
-2--------0---------2--|-2--5---7---5-7-5---2--|
------3------3---3-0---|----3---5---3-5-3-0----|

Sweet Home Alabama

Lynyryd Skynyryd

-----------------------------------------------|
-----3---------3-----------3-------------------|
-------2---------0-----------0-----------------|
-0-0--------------------------------0-2-0---0--|
---------3-0-3------------------0-2-------2----|
--------------------3-0-3----------------------|

Roadhouse Blues

The Doors

---------------------|--------------------|
---------------------|--------------------|
---------------------|--------------------|
---------------------|--------------------|
---------------------|----------------5/7-|
-0--0-0--0-0--0-5/7--|-0--0-0--0-0--0-----|

Voodoo Child

Jimi Hendrix

----------------------------------------|
----------------------------------------|
-9~-7---7~------------9~-7-------9~p[7]-|
------9----5-5--7-5--------9-[9]--------|
--------------------7-------------------|
----------------------------------------|

Crazy Train

Ozzy Osbourne

-----------------|-------------------|
-----------------|-------------------|
-----------------|-------------------|
-----------------|-------------------|
-----4---5---4---|-2-0---0--2-0------|
-2-2---2---2---2-|----4--------4-0-2-|

Back In Black

AC/DC

---------------------|-3-0--------------|---------------------|
---------------------|-----3-0----------|---------------------|
-1----7-7-7----------|---------2-0------|---------------------|
-2----7-7-7----7-7-7-|-------------2-0--|---------------------|
-2----5-5-5----5-5-5-|------------------|---------------------|
---------------5-5-5-|------------------|-7-4--7-5--7-6--7-7--|

Wish You Were Here

Pink Floyd

------------3-3--3-3--3-----------|
------------3-3--3-3--3-----------|
------------0-0--0-0--0-----------|
-------0-2---------------2-0------|
---0h2-----------------------2-0--|
-3--------------------------------|

Cat Sctratch Fever

Ted Nugent

----------------------------------------|
-2--4-5-5--2-4-5-------2--4-5-5--5-4-2--|
-2--4-5-5--2-4-5-------2--4-5-5--5-4-2--|
-2--4-5-5--2-4-5-------2--4-5-5--5-4-2--|
----------------------------------------|
-----------------0-3-4------------------|

Johny B. Goode

Chuck Berry

---------6/7-7-7-6/7-7-7-6/7-7-7---------------|
-----7-9-6/7-7-7-6/7-7-7-6/7-7-7--9-8-6--------|
-7h8------------------------------------6h7----|
--------------------------------------------8--|
-----------------------------------------------|
-----------------------------------------------|

59th Street Bridge Song [Feelin' Groovy]

Simon & Garfunkel

---0-------------------------0-------------7--3-|
-----3------1-----0------------3-----1----------|
-------0------0------0---0-------0-----0--------|
---0-----0------0------0-----0-----0-----0------|
-3---2------0--------------3---2-----0--------0-|
------------------3-----------------------------|

Whole Lotta Love

Led Zeppelin

--------------------------------------------|
--------------------------------------------|
--------------------------------------------|
---0---0--9-9-9-9-9-9-9-9-9-9-9-9-9-9-9-9---|
---5---5--7-7-7-7-7-7-7-7-7-7-7-7-7-7-7-7---|
-7---7--------------------------------------|

Hey Joe

Jimi Hendrix

-0-0--------------------------------------------------------|
-3/5-3---------------------------------0--------------------|
-------2p0-----------------------------1----------7-----7---|
-----------2~------------5---5---4-2---2------7h9-7-7h9-7-9-|
----------------4-5~---4/5---5---4-2---2--[0]---------------|
--------------0------0-----0---0-----0----------------------|

Sweet Child O' Mine

Guns 'n Roses

-------------15----14-----|
----15--------------------|
-------14-12----14----14--|
-12-----------------------|
--------------------------|
--------------------------|

Suite:Judy Blue Eyes

Crosby,Stills,Nash & Young

-7-7-7-7-7-7-7-7-7-6-5-4-|-4--0-0-0-0--4--0-0-0-0-|
-9-9-9-9-9-9-9-9-9-8-7-5-|-5--2-0-2-0--5--2-0-2-0-|
-------------------------|------------------------|
-------------------------|------------------------|
-------------------------|------------------------|
-------------------------|------------------------|

Fortunate Son

Creedence Clearwater Revival

-----------------------------------------|
------8~------6~-------5~------3~--------|
-----------------------------------------|
-7--9----5--7-----3--5----1--3-----------|
-----------------------------------------|
-----------------------------------5--2--|

Money

Pink Floyd
-----------------------|
-----------------------|
---4-------------------|
-----4-----------------|
-2-----2------2--5--2--|
---------2--5----------|

Goin' Up The Country

Canned Heat

-----------------------------------------------------|
-----6~----------------------------------------------|
-5-7----5-7-5-----3--7~--5-7-5-----3~--5-7-5-----3~--|
--------------3-5--------------3-5-----------3-5-----|
-----------------------------------------------------|
-----------------------------------------------------|


Red House

Jimi Hendrix

----11---------------11----------[11]-|---10--------------------[10]---|
----10----10---------10----10---------|---9-----9---------9---9------7-|
-11----11----11~--11----11----11------|-10---10---10~--10---10-------8-|
--------------------------------------|------------------------------9-|
--------------------------------------|--------------------------------|
--------------------------------------|--------------------------------|
Stairway To Heaven

Led Zeppelin

-------5-7------7-8-----8-2----2--0----0--------------|
-----5-----5--------5-------3-------1----1----0--1-1--|
---5-----4---5--4-5---5-5-----2------2-----2--0--2-2--|
-7------------------------0-------2-------------------|
----------------------------------------------2--0-0--|
------------------------------------------------------|

Sunshine Of Your Love

Cream

----------------------------------|
----------------------------------|
----------------------------------|
-12-12-10-12----------------------|
-------------12--11--10-----8-----|
-------------------------10---10--|

It's Only Rock & Roll

Rolling Stones
--------------------------------------------------|
-10/12~--10/12-10-9----------9--------------------|
-11/13~--11/13-11-9--9----9--11-(13)-11p9------9~-|
---------------------9h11---------------9h11------|
--------------------------------------------------|
--------------------------------------------------|

Day Tripper

Beatles

-------------------------|
-------------------------|
-------------------------|
----------2-0---4---0-2--|
--------2-----2---2------|
-0--3-4------------------|

One Way Out

Allman Brothers Band

---------------------------------------------------|
---------------------------------------------------|
---------------------------------------------------|
---7--7-5---7-7---5-5-7-7---7--7-5---7-7---5-5-----|
----------7-----7------------------7-----7-----7-7-|
-5-------------------------5-----------------------|

You Shook Me All Night Long

AC/DC

------------------------------|
-8--10--8-[8]--8-7---7------7-|
-7--7---7-[7]------7-7------7-|
---------------------0--------|
------------------------8-9---|
------------------------------|

Love Me Two Times

The Doors
--------------------------------|
--------------------------------|
---------------------2~------2~-|
--------------------------------|
-0-3--0-5--0-3--0---------------|
------------------0-----[0]-----|

Heroin

Velvet Underground

-2-------2---2--3-------3-----|-2-----3-2---2--3-------3---0-|
-3-----3---3----0-----0---0---|-3---------3----0-----0---0---|
-2---2----------0---0---------|-2---2----------0---0---------|
-0--------------0-------------|-0--------------0-------------|
----------------2-------------|----------------2-------------|
----------------3-------------|----------------3-------------|

Wonderful Tonight

Eric Clapton

-----5b[7]--5--3-5~-----5b[7]--5-3----|
-3-3----------------3-3------------5~-|
--------------------------------------|
--------------------------------------|
--------------------------------------|
--------------------------------------|

Paranoid

Black Sabbath

---------------------------|
---------------------------|
---------------------------|
-9-9-9-------7-9-----7-9---|
-7-7-7---7-9-----7-9-------|
---------------------------|

Black Betty

Ram Jam

------------------------|----------------------|
------------------------|-------------7--9--7--|
---------------------7~-|-------------7--9--7--|
---7--9~-----7--9-9--7--|-7--9-9--x---7--7--7--|
---7--9------7--9-9--5--|-7--9-9--x------------|
---5--7------5--7-7-----|-5--7-7--x------------|

Smoke On the Water

Deep Purple

----------------------------------------|
----------------------------------------|
----------------------------------------|
----------------------------------------|
-5--8--10--5--8--11-10--5--8--10--8--5--|
-3--6--8---3--6--9--8---3--6--8---6--3--|

No Rain

Blind Melon

-------------------------------------|-------------------------|
-10--10-12---10--10-12---10--10-12---|-10-9--------------------|
-----------9-----------9-----------9-|-----11--9--7-7--9-9-7-9-|
-------------------------------------|-------------------------|
-------------------------------------|-------------------------|
-------------------------------------|-------------------------|

Up On Cripple Creek

The Band

-----------------------|
-----------------------|
------0---------0--2---|
-0--2-----0--2---------|
-----------------------|
-----------------------|

Walk This Way

Aerosmith

-----------------------------------------------|
-----------------------------------------------|
-----------------------------------------------|
-------2-------2---------2-------2-------2--5~-|
-0-1-2---0-1-2-----0-1-2---0-1-2---0-1-2-------|
-----------------0-----------------------------|:leyendo:

Visita mi Blog
http://musicoadictos.wordpress.com/

Subir
#28 por alexis el 10/01/2008
Una pequeña aportación ... creo que algo similar usaba BBKing, en no se donde...

blueslentoez4.th.png

"Magia de Rock and Roll, la primera cancion y ya estoy bien ! "

Subir
#29 por sondraco el 10/01/2008
Muy bien Josep!! Este post ya va tomando forma.

"Que sería de la vida sin música"
http://comohacerdineroporlaweb.blogspot.com/

Subir
#30 por josep el 10/01/2008
Acústica Blues



E||--------0-----------------|--------------------------|
B||--------------------------|--------------------------|
G||--0h-1--------------------|--2--0--------------------|
D||--------------------------|--------2-----------------|
A||--------------------------|--------------------------|
E||--0--0--0--0--0--0--0--0--|--0--0--0--0--0--0--0--0--|



--------0-----------------|--0-----------------------|
--------------------------|-----0--3~----------------|
--0h-1--------------------|--------------------------|
--------------------------|--------------------------|
--------------------------|--------------------------|
--0--0--0--0--0--0--0--0--|--0--0--0~-0--0--0--0--0--|



--0~----------------------|--0-----0-----0-----------|
--5~----------------------|--5-----3-----0-----0--0--|
--------------------------|--------------------0--0--|
--------------------------|--------------------------|
--0~-0--0--0--0--0--0--0--|--0--0--0--0--0--0--0--0--|
--------------------------|--------------------------|



--------------------------|--------------------------|
--------------------------|--------5--3~-------------|
--------------------------|--------------------------|
--2-----------------------|--------------------------|
-----------------0--2-----|--------------------------|
--0--0--0--0--0--0--0--3--|--0--0--0--0~-0--0--0--0--|



--------------2-----------|-------3--0----------------|
--------0--------0--------|-------------3--0----------|
-----2-----2--------2-----|-------------------2r---0--|
--------------------------|------------------------2--|
--2--------------------1--|--0------------------------|
--------------------------|---------------------------|



--------------------------|----------------------||
--------------------------|----------------------||
--------------------------|----------------------||
--2--2--0--0--------------|----------------------||
--------------4--4--3--3--|--2----0--1--2--------||
--------------------------|----------------------||

otro más



E||--17\-------------8-------|--10b10p-8----8--10-8---------------|
B||--------------10----10~---|-----------10---------10----8-10----|
G||------------9-------------|--------------------------9-------9-|
D||--------------------------|------------------------------------|
A||--------------------------|------------------------------------|
E||--------------------------|------------------------------------|



-----------------------------|-------------5----7----|
-----------------------------|--5--6--7--------------|
--8p7-----7-9----------------|-----------------------|
-------10-----10/11-7--------|-----------------------|
-----------------------------|-----------------------|
-----------------------------|-----------------------|



--8p7-5---5--------5--7-8p7-5---|--5-----------5~-------|
--------7---5--6-7------------7-|----5--6-7-------------|
--------------------------------|-----------------------|
--------------------------------|-----------------------|
--------------------------------|-----------------------|
--------------------------------|-----------------------|



--13b-------12p10---------------|--------------------|
-------------------13-10-----13-|--10~---------------|
-------------------------12-----|--------------------|
--------------------------------|--------------------|
--------------------------------|--------------------|
--------------------------------|--------------------|



--------------------------------------|--------------------------------------|
--12--------14----12------------------|--10-------12-10----------------------|
--12h13-----14----12h13---------------|--10h11----12-10h11-------------------|
---------14--------------14----12--14-|--------12----------12----10----12----|
----------------------------14--------|-----------------------12-------------|
--------------------------------------|--------------------------------------|



------------------------------|-------------------------|--5----------------|
--5-----7-5-------------------|-----------5-------------|-------------------|
--5h6---7-5h6-----------------|-------5h6----5h-6-------|-------------------|
------7-------7---5----7-5--7-|-------------------------|-------------------|
----------------7-------------|--7-----------------7----|-------------------|
------------------------------|-------------------------|-------------------|



--5~---------------||
--5~---------------||
--6~---------------||
--5~---------------||
-------------------||
-------------------||



Y en esta dirección teneis los archivos de sonido TAB de estos dos licks, y muchos más.

LICKS II

Visita mi Blog
http://musicoadictos.wordpress.com/

Subir
#31 por tentaco93 el 10/01/2008
Te hago una pequeña aportación, espero que os sirva de ayuda:


Con este Lick del Maestro Jason, podrán practicar sus "triángulos", aparte de divertirse un rato con su particular sonido ...


E||---------------12-15--12-------------12-15--12---15--12-13~-15-13~-12----------|
B||-------------13--------------------13----------------------------------15--12--|
G||*----------12--------------------12--------------------------------------------|
D||*--------14--------------------14----------------------------------------------|
A||-------15--------------------15------------------------------------------------|
E||---8/12------------------8/12--------------------------------------------------|


E||---------------12-15--12-------------12-15--12---15--12-13~-15-13~-12------15~-|
B||-------------13--------------------13----------------------------------13------|
G||*----------12--------------------12--------------------------------------------|
D||*--------14--------------------14----------------------------------------------|
A||-------15--------------------15------------------------------------------------|
E||---8/12------------------8/12--------------------------------------------------|


E||-15--16--17--16--17---13---13--14--15--14--15---12---13--15--13--12----------15|
B||---------------------------------------------------------------------13--------|
G||*------------------------------------------------------------------------12----|
D||*------------------------------------------------------------------------------|
A||-------------------------------------------------------------------------------|
E||-------------------------------------------------------------------------------|


E||----------12-15--12/10--------------------------12-15--12-------------12-15--12|
B||--------13------------12----------------------13--------------------13---------|
G||*-----12----------------12-------4~~~-------12--------------------12-----------|
D||*---14--------------------12-9/5----------14--------------------14-------------|
A||--15------------------------------------15--------------------15---------------|
E||------------------------------------8/12------------------8/12-----------------|


E||-15--15-17---17-17---19---19--------20~~---------------------------------------|
B||------------------------------------20-----------------------------------------|
G||*-----------------------------------17-----------------------------------------|
D||*-----------------------------------17-----------------------------------------|
A||-------------------------------------------------------------------------------|
E||-------------------------------------------------------------------------------|

Un lick al estilo Nicolo, el mejor violinista de la historia.




E||--7--7--5---5------0----0-3--|--2-0-3--2-0-3------0-3-2----|
B||-----8----8-7--8-7-8--7---1--|------0------5----4-------3~-|
G||-----------------------------|-------------3---------------|
D||-----------------------------|-----------------------------|
A||-----------------------------|-----------------------------|
E||-----------------------------|-----------------------------|

----2-3-5--3--5----3~---||
-------------------3~---||
------------------------||
------------------------||
------------------------||
------------------------||

Este lick es de Jason Becker es muy entretenido de tocar, posee un sonido del tipo neoclásico, la parte de los arpegios ayuda mucho en la técnica de pua



E||---------------------------------------------------------------------|
B||------------------------------------------------------------10-12-13-|
G||*-------------------9-10-9--------------------------9-10-12----------|
D||*-----------9-10-12--------12-10-9----------9-10-12------------------|
A||---12-11-12------------------------12-11-12--------------------------|
E||---------------------------------------------------------------------|



-----------------------------------------------------------|
-----------------8-10-8------------------------------------|
----------7-9-10--------10-9-7---------7-9-10--------------|
--10-9-10----------------------10-9-10--------7-9-10-6-7-9-|
-----------------------------------------------------------|
-----------------------------------------------------------|



----------------------------------------------------|
----------------------------------------------------|
---------------------------5-----7-----9-----10-----|
--6-----7-----9-----10-------7-6---7-6---7-6----7-6-|
----8-7---8-7---8-7----8-7--------------------------|
----------------------------------------------------|



----------------------------------------------------------||
----------------------------------------------------------||
--10-9-7-10-9-7----9-7-----------------------9-8-9-------*||
----------------10-----10-9-10-12-10-9-6-7-9-------6-7-9-*||
----------------------------------------------------------||
----------------------------------------------------------||



--------------------------------------------------------------|
--------------------------------------------------------------|
-------------------9-10-9------------------------7-9-7--------|
-----------9-10-12--------12-10-9---------7-9-10-------10-9-7-|
--12-11-12------------------------10-9-10---------------------|
--------------------------------------------------------------|



----------------------------------------------------|
----------------------------------------------------|
--------------5-7-5---------------------------4-5-6-|
--------6-7-9-------9-7-6-7-9-10-6-7-9-7-9-10-------|
--8-7-8---------------------------------------------|
----------------------------------------------------|



------------------7-12---16p12----------12-13-12-10-------------|
----------------9------9-------12----12-------------13-12-10----|
--5-6-7-6-7-8-9-------------------13-------------------------12-|
----------------------------------------------------------------|
----------------------------------------------------------------|
----------------------------------------------------------------|



---------------------------------------------------------|
---------------------------------------------------------|
--10-9---------------9-----13p9--------9-10-9-7-10-9-7-9-|
-------12-10-9---6h9---9p6------9----9-------------------|
---------------7------------------11---------------------|
---------------------------------------------------------|



---------------------------------------------------------------|
---------------------------------------------------------------|
--7----------------------------9-10-9------------------------7-|
----10-9-10-9----------9-10-12--------12-10-9---------7-9-10---|
--------------12-11-12------------------------10-9-10----------|
---------------------------------------------------------------|



---------------------------------------------------10-15p|
------------------------------------------------12-------|
--9-7--------------------5-7-5---------------12----------|
------10-9-7-------6-7-9-------9-7-6----9h12-------------|
-------------8-7-8-------------------10------------------|
---------------------------------------------------------|



--10------------15p11----------------------------11-15p10---------------|
-----12---------------13----------------------13----------12------------|
--------12---------------12----------------12----------------12---------|
-----------12-9-------------13----------13----------------------12-9----|
-------------------------------15-10h15------------------------------10-|
------------------------------------------------------------------------|



-------------10-15p11----------------------------11----10h15----11h15----|
----------12----------13----------------------13----12-------13-------12-|
-------12----------------12----------------12----------------------------|
--9h12----------------------13----------13-------------------------------|
-------------------------------15-10h15----------------------------------|
-------------------------------------------------------------------------|



--10h15----11h15----10h15----11h15----10h15----11h15-15b----|
--------13-------12-------13-------12-------13--------------|
------------------------------------------------------------|
------------------------------------------------------------|
------------------------------------------------------------|
------------------------------------------------------------|

Repetir Todo

--13p10----10-------------------10h13-16p13p10----------------||
--------12-------------------12----------------12-------------||
--------------13p10----10h13----------------------13p10-------||
--------------------12----------------------------------12\---||
--------------------------------------------------------------||
--------------------------------------------------------------||


Magic mirror -Interlude - Y. Malsmsteen



|-18-22-20-18-15-18-17-15-17-20-18-17-13-17-15-13-|15-18-17-15-12-15-13-12--
|-------------------------------------------------|-------------------------
|-------------------------------------------------|-------------------------
|-------------------------------------------------|-------------------------
|-------------------------------------------------|-------------------------
|-------------------------------------------------|-------------------------

|---13----------15----------|-17----------18-------------|17-18-15-18-13-18-
|15----15-14-15----15-14-15-|----15-14-15----15-14-15-14-|------------------
|---------------------------|----------------------------|------------------
|---------------------------|----------------------------|------------------
|---------------------------|----------------------------|------------------
|---------------------------|----------------------------|------------------

|----18----18-------------15-17-|-18-15-17----15----------------------------
|-17----15----14-15-17-18-------|----------18----17-18-15-17----15----------
|-------------------------------|----------------------------18----15-18-14-
|-------------------------------|-------------------------------------------
|-------------------------------|-------------------------------------------
|-------------------------------|-------------------------------------------

|--------|------------------------------|
|--------|------------------------------|
|-15-----|-14---------------------------|
|----17--|----15-17-14-15----14---------|
|--------|----------------17----16-17~--|
|--------|------------------------------|


Licks con tapping:


Lick 1


E||--------------------------------------------12----||
B||--10t8-10t8p5h8-12t8-12t8p5h8-13t8-13t8p5h8-13b---||
G||--------------------------------------------------||
D||--------------------------------------------------||
A||--------------------------------------------------||
E||--------------------------------------------------||

ick 2


E||--5h6h8-10p8p6p5h-------------------|-------------------------------------|
B||-----------------8-10p8p6p5h6p5h----|-------------------------------------|
G||--------------------------------7-9p|--7p5h-------------------------------|
D||------------------------------------|------8-10p8p7p5h--------------------|
A||------------------------------------|-----------------8-10p8p7h8p7p5h-----|
E||------------------------------------|--------------------------------8-10p|



----------------------||
----------------------||
----------------------||
----------------------||
----------------------||
--8p6p5\3-------------||


Lick 3


E||----------8-12-8-10-12-17t12-10-8-7-8-10-15t|
B||--8-10-12-----------------------------------|
G||--------------------------------------------|
D||--------------------------------------------|
A||--------------------------------------------|
E||--------------------------------------------|



--10-8-7-------------------------------|-----------------------------------|
---------10-8-7-8-10-15t8-7-5-7-8-12t8-|--7-5------------------------------|
---------------------------------------|------7-5-4-5-7-12t7-5-4-----------|
---------------------------------------|-------------------------7-5-4-5-7-|
---------------------------------------|-----------------------------------|
---------------------------------------|-----------------------------------|



-----------------------------------|----------------------------------||
-----------------------------------|----------------------------------||
-----------------------------------|----------------------------------||
--12t7-5-4-2-4-5-9t5-4-2-----------|----------------------------------||
-------------------------5-3-2-3-5-|--10t5-3-2------------------------||
-----------------------------------|-----------5-3-2-3-5-10t5-3-2-0---||


Saludos que os sirva de ayuda nos vemos..:D
Subir
#32 por josep el 11/01/2008
Muy buena aportacion Tentaco93, +1 para ti
---------------------------------
Más Licks

EJ. 1 (Am) - semicorcheas

E-||-5-3-----5-3-5-3-----5-3-5-3----|-8-5-----8-5-8-5-----8-5-8-5----
B-||-----5-3---------5-3--------5-3-|-----8-5---------8-5--------8-5-
G-||--------------------------------|--------------------------------
D-||--------------------------------|--------------------------------
A-||--------------------------------|--------------------------------
E-||--------------------------------|--------------------------------



E-|-10-8------10-8-10-8------10-8-10-8-------|-12-10-------12-10-------15-
B-|------10-8-----------10-8-----------10-8--|-------13-10-------13-10----
G-|------------------------------------------|----------------------------
D-|------------------------------------------|----------------------------
A-|------------------------------------------|----------------------------
E-|------------------------------------------|----------------------------



EJ. 2 (Em) - semicorcheas

E|-12--------15-12--------|-15b17--||-||--12----------------12-15-12-*------
B|----15-13--------15-13--|--------||-||*----15-12----12-15----------15-12--
G|------------------------|--------||-||-----------14-----------------------
D|------------------------|--------||-||------------------------------------
A|------------------------|--------||-||*-----------------------------------
E|------------------------|--------||-||------------------------------------



EJ. 3 (Em) - semicorcheas

E|-----12-17-12-----||-||-------------------12-14-15-14-12---------------
B|-15-----------15-*||-||----------12-14-15----------------15-14-12------
G|------------------||-||-12-14-15---------------------------------15-14-
D|------------------||-||------------------------------------------------
A|-----------------*||-||------------------------------------------------
E|------------------||-||------------------------------------------------

EJ. 4 (Dm) - seisillos
E|----------------------------||------------------------------------|-
B|----------------------------||------------------------------------|-
G|-12-------------------------||------------------------------------|-
D|----14-13-12----------------||----------------10-12-10------------|-
A|-------------14-13-12-------||-------10-11-12----------12-11-10---|-
E|----------------------15-12-||-10-13---------------------------13-|-

E|--------------------------------------|------------------------------
B|--------------------------------------|----------------13-15-13------
G|----------------10-12-13-12-10--------|-------12-13-14---------14-13-
D|----------10-12----------------12-10--|-12-15------------------------
A|-10-11-12-----------------------------|------------------------------
E|--------------------------------------|------------------------------

E|--------|------------------13-15-16-15-13--------||-
B|--------|-----------13-15-----------------15-13--||-
G|-12-----|-12-13-14-------------------------------||-
D|----15--|----------------------------------------||-
A|--------|----------------------------------------||-
E|--------|----------------------------------------||-



Licks con sabor a Jazz

12 Basic II-V-I lines

E|--------------------------------|------ 5------ 7-------------- 8|
B|------ 5------ 6-------------- 8|--------------------------------|
G| 7------------------------------|--------------------------------|
D|--------------------------------|--------------------------------|
A|--------------------------------|--------------------------------|
E|--------------------------------|--------------------------------|

E|------10------12-------------- 8|------10------12----------------|
B|--------------------------------|--------------------------------|
G|--------------------------------|--------------------------------|
D|--------------------------------|--------------------------------|
A|--------------------------------|--------------------------------|
E|--------------------------------|--------------------------------|

E|--------------------------------|-------------- 7-------------- 8|
B|------------ 5-- 6------------ 8|------ 81010--------------------|
G| 7------ 7----------------------|--------------------------------|
D|--------------------------------|--------------------------------|
A|--------------------------------|--------------------------------|
E|--------------------------------|--------------------------------|

E|------ 8--10----12------------ 8|-------- 8--10--12--------------|
B|--------------------------------|--------------------------------|
G|--------------------------------|--------------------------------|
D|--------------------------------|--------------------------------|
A|--------------------------------|--------------------------------|
E|--------------------------------|--------------------------------|

E|--------------------------------|--------------10----------------|
B|--------------10----------------|--10--12--13------------------13|
G|-- 9--10--12------------------12|--------------------------------|
D|12------------------------------|--------------------------------|
A|--------------------------------|--------------------------------|
E|--------------------------------|--------------------------------|

E|------12--13--15----------------|------12----13--15--------------|
B|--15--------------------------13|----15--------------------------|
G|--------------------------------|--------------------------------|
D|--------------------------------|--------------------------------|
A|--------------------------------|--------------------------------|
E|--------------------------------|--------------------------------|

E|--------------------------------|--------------------------------|
B|------------10------------------|------12----15----------------13|
G|---- 9--10--------------------12|----14--------------------------|
D|12------------------------------|--------------------------------|
A|--------------------------------|--------------------------------|
E|--------------------------------|--------------------------------|

E|------12--15--------------------|------12--15--------------------|
B|--15--------------------------13|--15----------------------------|
G|--------------------------------|--------------------------------|
D|--------------------------------|--------------------------------|
A|--------------------------------|--------------------------------|
E|--------------------------------|--------------------------------|

E|--------------------------10----|------------------12--13--15----|
B|--------------10----1213--------|--------1213--15----------------|
G|---- 910----12----------------12|--14----------------------------|
D|12------------------------------|------------------------------10|
A|--------------------------------|--------------------------------|
E|--------------------------------|--------------------------------|

E|---------------------- 7-- 8----|---------------------- 7-- 8----|
B|-------------- 8--10------------|-------------- 8--10------------|
G|-- 7-- 9--10--------------------|---- 7-- 9--10------------------|
D|--------------------------------|10------------------------------|
A|--------------------------------|--------------------------------|
E|--------------------------------|--------------------------------|

E|--------------------------------|--------------------------------|
B|------------10------------------|------12--15------------------13|
G|--------10--------------------12|--------------------------------|
D|12------------------------------|--------------------------------|
A|--------------------------------|--------------------------------|
E|--------------------------------|--------------------------------|

E|------12----15------------------|------12----15------------------|
B|------------------------------13|--------------------------------|
G|--------------------------------|--------------------------------|
D|--------------------------------|--------------------------------|
A|--------------------------------|--------------------------------|
E|--------------------------------|--------------------------------|

E|--------------------------------|--------------13----------------|
B|------------10--13--------------|------12--15--------------------|
G|--------10----------------------|12------------------------------|
D|12------------------------------|--------------------------------|
A|--------------------------------|--------------------------------|
E|--------------------------------|--------------------------------|

E|--------1215----19--------------|------12--15--19----------------|
B|13----------------------------13|--------------------------------|
G|--------------------------------|--------------------------------|
D|--------------------------------|--------------------------------|
A|--------------------------------|--------------------------------|
E|--------------------------------|--------------------------------|

E|--------------------------------|------10--13--------10----------|
B|------10----13------10----------|--12------------------12--------|
G|----10------------------10----12|--------------------------12----|
D|12------------------------1212--|------------------------------10|
A|--------------------------------|--------------------------------|
E|--------------------------------|--------------------------------|

E|---------- 7--------------------|------------ 7------------------|
B|------ 8------------ 8----------|------ 8------------ 8----------|
G|-- 9-------------------- 9------|-- 9------------------ 9--------|
D|--------------------------10--10|--------------------------10----|
A|--------------------------------|--------------------------------|
E|--------------------------------|--------------------------------|

E|----------------12--------------|----------13----17--------------|
B|--------10--13------------------|----1215------------------------|
G|----10------------------------12|--------------------------------|
D|12------------------------------|--------------------------------|
A|--------------------------------|--------------------------------|
E|--------------------------------|--------------------------------|

E|---------- 7----10--------------|------------ 7--10--------------|
B|------ 8------------------------|-------- 8----------------------|
G|-- 9----------------------------|---- 9--------------------------|
D|10------------------------------|10------------------------------|
A|--------------------------------|--------------------------------|
E|--------------------------------|--------------------------------|

E|--------------------------------|--------------10----------------|
B|--------------10----------------|--10--12--13------12--10--------|
G|---- 9--10--12----10---- 9----12|--------------------------12----|
D|12--------------------------12--|--------------------------------|
A|--------------------------------|--------------------------------|
E|--------------------------------|--------------------------------|

E|--------------------------------|--------------------------------|
B|-------------- 8----------------|-------------- 8----------------|
G|-- 7-- 9--10------ 9-- 7--------|-- 7-- 9--10------ 9-- 7--------|
D|10------------------------10--10|--------------------------10----|
A|--------------------------------|--------------------------------|
E|--------------------------------|--------------------------------|

E|--------------------------------|--------------10--13--12--10----|
B|----------------10--13--12--10--|----10--12--13------------------|
G|-- 9--10----12------------------|12------------------------------|
D|12------------------------------|--------------------------------|
A|--------------------------------|--------------------------------|
E|--------------------------------|--------------------------------|

E|------------------ 7------------|------------------ 7------------|
B|-------------- 8------10---- 8--|-------------- 8------10-- 8----|
G|---- 7-- 9--10------------------|-- 7---- 910--------------------|
D|10------------------------------|10------------------------------|
A|--------------------------------|--------------------------------|
E|--------------------------------|--------------------------------|

E|----------------12--10----------|----------13--17--15--13--------|
B|--------10--13--------13--10----|--12--15------------------15----|
G|----10------------------------12|--------------------------------|
D|12------------------------------|--------------------------------|
A|--------------------------------|--------------------------------|
E|--------------------------------|--------------------------------|

E|---------- 7--10---- 8 7--------|---------- 7--10-- 8-- 7--------|
B|------ 8------------------ 8----|------ 8------------------ 8----|
G|-- 9----------------------------|-- 9----------------------------|
D|10----------------------------10|--------------------------------|
A|--------------------------------|--------------------------------|
E|--------------------------------|--------------------------------|


8 Basic II-V-I lines

E|------------------12--10--------|----------12--13----------------|
B|----------10--13----------13--12|--13--15----------15--12--------|
G|--------10----------------------|--------------------------14----|
D|----1012------------------------|--------------------------------|
A|--------------------------------|--------------------------------|
E|--------------------------------|--------------------------------|

E|--------------------------------|--------------------------------|
B|--------------------------------|--------------------------------|
G|12------------------------------|--------------------------------|
D|--------------------------------|--------------------------------|
A|--------------------------------|--------------------------------|
E|--------------------------------|--------------------------------|

E|--------------------------------|--------------------------------|
B|----------------10--13--12--10--|--------------------------------|
G|---- 9--10--12------------------|12--11--10-- 9-- 7--------------|
D|12------------------------------|--------------------10-- 9--10--|
A|--------------------------------|--------------------------------|
E|--------------------------------|--------------------------------|

E|--------------------------------|--------------------------------|
B|--------------------------------|--------------------------------|
G| 7------------------------------|--------------------------------|
D|--------------------------------|--------------------------------|
A|--------------------------------|--------------------------------|
E|--------------------------------|--------------------------------|

E|------------------------------12|--13--12--10-- 9----------------|
B|----------------------10--13----|------------------12--11-- 9----|
G|------------ 910--12------------|--------------------------------|
D|1211--12------------------------|--------------------------------|
A|--------------------------------|--------------------------------|
E|--------------------------------|--------------------------------|

E|--------------------------------|--------------------------------|
B| 8------------------------------|--------------------------------|
G|--------------------------------|--------------------------------|
D|--------------------------------|--------------------------------|
A|--------------------------------|--------------------------------|
E|--------------------------------|--------------------------------|

E|--------------------------------|--12--10------------------------|
B|--------------------------10----|13--------13--12----------------|
G| 7---------------- 7--10--------|------------------13--12----10--|
D|--10---- 7 8-- 9----------------|--------------------------------|
A|--------------------------------|--------------------------------|
E|--------------------------------|--------------------------------|

E|--------------------------------|--------------------------------|
B|--------------------------------|--------------------------------|
G| 9--101011-- 7------------------|--------------------------------|
D|--------------------------------|--------------------------------|
A|--------------------------------|--------------------------------|
E|--------------------------------|--------------------------------|

E|--------------------------------|--------------------------------|
B|------------------------------10|--13----10--1112----10----------|
G|---------- 9----10 9--10--12----|----------------------12--10----|
D|12--1112------------------------|--------------------------------|
A|--------------------------------|--------------------------------|
E|--------------------------------|--------------------------------|

E|------ 7----10------------------|--------------------------------|
B|---- 8--------------------------|--------------------------------|
G| 9------------------------------|--------------------------------|
D|--------------------------------|--------------------------------|
A|--------------------------------|--------------------------------|
E|--------------------------------|--------------------------------|

E|------------------------------12|--15--13--12--11----------------|
B|------------------------1013----|------------------12------------|
G|--10-- 9------12-- 9--10--------|----------------------13--10----|
D|12--------12--------------------|--------------------------------|
A|--------------------------------|--------------------------------|
E|--------------------------------|--------------------------------|

E|--------------------------------|--------------------------------|
B|--------------------------------|--------------------------------|
G| 911--12----11----11-- 9--------|--------------------------------|
D|--------------------------------|--------------------------------|
A|--------------------------------|--------------------------------|
E|--------------------------------|--------------------------------|

E|--------------------------------|--------------------------------|
B|------10--13--10--11--12-- 8-- 9|--10----------------------------|
G|--10----------------------------|------10--11--12-- 9------------|
D|12------------------------------|----------------------12----10--|
A|--------------------------------|--------------------------------|
E|--------------------------------|--------------------------------|

E|--------------------------------|--------------------------------|
B|--------------------------------|--------------------------------|
G|--------------------------------|--------------------------------|
D| 9------------------------------|--------------------------------|
A|--------------------------------|--------------------------------|
E|--------------------------------|--------------------------------|


10 II-V-I lines

E|--------------------------------|--------------------------16--15|
B|--------------10----------------|--------------------1215--------|
G|---- 910----12------10 9------12|---- 910--12--13----------------|
D|12--------------------------12--|--------------------------------|
A|--------------------------------|--------------------------------|
E|--------------------------------|--------------------------------|

E|--------------------------------|--------------------------------|
B|--------------------------------|--------------------------------|
G|--------------------------------|--------------------------------|
D|--------------------------------|--------------------------------|
A|--------------------------------|--------------------------------|
E|--------------------------------|--------------------------------|

E|--------------------------------|--------------------------------|
B|----------------------10----1311|---- 911---- 9------------------|
G|------------ 9--10--12----------|-------------- 8------10----12--|
D|12----12------------------------|--------------------------------|
A|--------------------------------|--------------------------------|
E|--------------------------------|--------------------------------|

E|--------------------------------|--------------------------------|
B|--------------------------------|--------------------------------|
G|--------------------------------|--------------------------------|
D|--------------------------------|--------------------------------|
A|--------------------------------|--------------------------------|
E|--------------------------------|--------------------------------|

E|--------------------------------|--------------------------------|
B|--------------10----------------|--------------------------------|
G|---- 910----12------1210-- 9----|--------------------------------|
D|12----------------------------12|--10-- 9---- 7 9----------------|
A|--------------------------------|--------------------------------|
E|--------------------------------|--------------------------------|

E|--------------------------------|--------------------------------|
B|--------------------------------|--------------------------------|
G|--------------------------------|--------------------------------|
D|--------------------------------|--------------------------------|
A|--------------------------------|--------------------------------|
E|--------------------------------|--------------------------------|

E|--------------------------------|--------------------------------|
B|--------------10----------------|--------------------11 9------ 8|
G|---- 9--10--12------1210---- 9--|------------ 810----------11----|
D|12----------------------------12|----10-- 9----------------------|
A|--------------------------------|--------------------------------|
E|--------------------------------|--------------------------------|

E|--------------------------------|--------------------------------|
B|--------------------------------|--------------------------------|
G|--------------------------------|--------------------------------|
D|--------------------------------|--------------------------------|
A|--------------------------------|--------------------------------|
E|--------------------------------|--------------------------------|

E|--------------------------------|--------------------------------|
B|------------------------------10|-- 9--10--13--12----10----------|
G|---------- 9--10---- 910--12----|----------------------12----10--|
D|12--1112------------------------|--------------------------------|
A|--------------------------------|--------------------------------|
E|--------------------------------|--------------------------------|

E|--------------------------------|--------------------------------|
B|--------------------------------|--------------------------------|
G|12------------------------------|--------------------------------|
D|--------------------------------|--------------------------------|
A|--------------------------------|--------------------------------|
E|--------------------------------|--------------------------------|

E|------------------------------12|------12----11---- 8------------|
B|------------------------1013----|-------------------- 9----------|
G|----10 9------12---- 910--------|------------------------10---- 9|
D|12----------12------------------|--------------------------------|
A|--------------------------------|--------------------------------|
E|--------------------------------|--------------------------------|

E|--------------------------------|--------------------------------|
B|--------------------------------|--------------------------------|
G|--101112----11------------------|--------------------------------|
D|--------------------------------|--------------------------------|
A|--------------------------------|--------------------------------|
E|--------------------------------|--------------------------------|

E|--------------------------------|------10----1213----------------|
B|--------10--12--13------------12|----13--------------------------|
G|10--12--------------------------|--------------------------------|
D|--------------------------------|--------------------------------|
A|--------------------------------|--------------------------------|
E|--------------------------------|--------------------------------|

E|---------------- 7--------------|---------------- 7--------------|
B|-------- 8--10------------------|-------- 8--10------------------|
G| 9--10--------------------------| 9--10--------------------------|
D|--------------------------------|--------------------------------|
A|--------------------------------|--------------------------------|
E|--------------------------------|--------------------------------|

E|--------------------1012--------|----------12--13--15--17--------|
B|--------10--1213--------------12|--13--15------------------------|
G|10--12--------------------------|--------------------------------|
D|--------------------------------|--------------------------------|
A|--------------------------------|--------------------------------|
E|--------------------------------|--------------------------------|

E|-------------- 7-- 8--10--------|-------------- 7---- 810--------|
B|------ 8----10------------------|------ 8----10------------------|
G| 9--10------------------------ 9|----10--------------------------|
D|--------------------------------|--------------------------------|
A|--------------------------------|--------------------------------|
E|--------------------------------|--------------------------------|

E|------------12------10----------|--------13--17------1513--------|
B|----10--13------------13----10--|12--15----------------------15--|
G|10------------------------------|--------------------------------|
D|--------------------------------|--------------------------------|
A|--------------------------------|--------------------------------|
E|--------------------------------|--------------------------------|

E|------ 7----10------ 8 7--------|------ 7----10------ 8 7--------|
B|---- 8---------------------- 8--|---- 8---------------------- 8--|
G| 9---------------------------- 9|--------------------------------|
D|--------------------------------|--------------------------------|
A|--------------------------------|--------------------------------|
E|--------------------------------|--------------------------------|

E|------------12--15--1312--------|------------1720----1917--------|
B|--------13------------------13--|----1518--------------------1817|
G|----14--------------------------|16------------------------------|
D|15------------------------------|--------------------------------|
A|--------------------------------|--------------------------------|
E|--------------------------------|--------------------------------|

E|----15--------------------------|--------------------------------|
B|--------------------------------|--------------------------------|
G|--------------------------------|--------------------------------|
D|--------------------------------|--------------------------------|
A|--------------------------------|--------------------------------|
E|--------------------------------|--------------------------------|


7 II-V-I lines

E|--------------------------------|--------------------------------|
B|--------10--13--12--10----------|-------------- 8----------------|
G|10--12------------------12--10--| 9-------- 7---------- 9---- 7--|
D|--------------------------------|--------------------------------|
A|--------------------------------|--------------------------------|
E|--------------------------------|--------------------------------|

E|--------------------------------|--------------------------------|
B|--------------------------------|--------------------------------|
G|--------------------------------|--------------------------------|
D|--------------------------------|--------------------------------|
A|--------------------------------|--------------------------------|
E|--------------------------------|--------------------------------|

E|--------------------------------|----------------------10----1210|
B|--------------10----1312----10--|------------1012----13----------|
G|10-- 9--10--12------------------|12--1112------------------------|
D|--------------------------------|--------------------------------|
A|--------------------------------|--------------------------------|
E|--------------------------------|--------------------------------|

E|--------------------------------|--------------------------------|
B|----------------------------1312|--------------------------------|
G|--------------------------------|--------------------------------|
D|--------------------------------|--------------------------------|
A|--------------------------------|--------------------------------|
E|--------------------------------|--------------------------------|

E|--------------------------------|--------------12----10----------|
B|----10--------------------------|--------10--13--------13----10--|
G|10------ 9----12----10 9--------|------10------------------------|
D|------------12--------------12--|11--12--------------------------|
A|--------------------------------|--------------------------------|
E|--------------------------------|--------------------------------|

E|--------------------------------|--------------------------------|
B|12------------------------------|--------------------------------|
G|--------------------------------|--------------------------------|
D|--------------------------------|--------------------------------|
A|--------------------------------|--------------------------------|
E|--------------------------------|--------------------------------|

E|--------------------------------|--------------------------------|
B|------------10--13--10--12--10--|--------------10----------------|
G|10--12--13--------------------12|----1112----13------10-- 9------|
D|--------------------------------|----------------------------12--|
A|--------------------------------|--------------------------------|
E|--------------------------------|--------------------------------|

E|--------------------------------|--------------------------------|
B|--------------------------------|--------------------------------|
G|12------------------------------|--------------------------------|
D|------------12------------------|--------------------------------|
A|--------------------------------|--------------------------------|
E|--------------------------------|--------------------------------|

E|------------1215----1312--------|--------------------------------|
B|----------13----------------15--|14--15--14--12------------------|
G|------14------------------------|----------------15--16--15--13--|
D|15------------------------------|--------------------------------|
A|--------------------------------|--------------------------------|
E|--------------------------------|--------------------------------|

E|--------------------------------|--------------------------------|
B|--------------------------------|--------------------------------|
G|12------------------------------|--------------------------------|
D|--------------------------------|--------------------------------|
A|--------------------------------|--------------------------------|
E|--------------------------------|--------------------------------|

E|--------------------------------|----------------------13--17--15|
B|----10--------------12----------|----13--------12----15----------|
G|10------10--11--12------12--1314|------14----15------------------|
D|--------------------------------|--------------------------------|
A|--------------------------------|--------------------------------|
E|--------------------------------|--------------------------------|

E|--------------------------------|--------------------------------|
B|--------------------------------|--------------------------------|
G|--------------------------------|--------------------------------|
D|--------------------------------|--------------------------------|
A|--------------------------------|--------------------------------|
E|--------------------------------|--------------------------------|

E|------------------------------12|----15--13----------12----------|
B|----10--------------------1013--|------------14----------15--12--|
G|10------ 9----12---- 910--------|--------------------------------|
D|------------12------------------|--------------------------------|
A|--------------------------------|--------------------------------|
E|--------------------------------|--------------------------------|


11 II-V-I lines

E|17--15--------------------------|--------------------------------|
B|--------18--17--15--------------|1513--12------------------------|
G|--------------------------------|----------14--12--------------12|
D|--------------------------------|--------------------------------|
A|--------------------------------|--------------------------------|
E|--------------------------------|--------------------------------|

E|--------------------------------|--------------------------------|
B|--------------------------------|--------------------------------|
G|--10-- 9----------------------12|----10 9------------------------|
D|----------12--10----------------|------------12--10--------------|
A|--------------------------------|--------------------------------|
E|--------------------------------|--------------------------------|

E|--------------------------------|10------------------------------|
B|10------------------------------|----12--10------10--------------|
G|----10-- 9------ 9--------------|------------12------12----------|
D|------------12------12----------|--------------------------------|
A|--------------------------------|--------------------------------|
E|--------------------------------|--------------------------------|

E|--------------------------------|--------------------------------|
B| 8------------------------------| 8------------------------------|
G|---- 9-- 7---- 7----------------|---- 9-- 7------ 7--------------|
D|--------12--10------10----------|------------10------10----------|
A|--------------------------------|--------------------------------|
E|--------------------------------|--------------------------------|

E|--------------------------------|10------------------------------|
B|10------------------------------|----12--10------10------------ 8|
G|----10-- 9------ 9--------------|------------12------------------|
D|------------12------------------|--------------------------------|
A|--------------------------------|--------------------------------|
E|--------------------------------|--------------------------------|

E|--------------------------------|--------------------------------|
B|------------------------------ 8|--------------------------------|
G|-- 9-- 7------ 7----------------|---- 9 7-------- 7--------------|
D|----------10--------------------|------------10------------------|
A|--------------------------------|--------------------------------|
E|--------------------------------|--------------------------------|

E| 5------------------------------|10 7----------------------------|
B|-- 6----------------------------|------ 8------------10-- 8------|
G|------ 7------ 5-------- 4------|---------- 7----10----------10--|
D|---------- 7------ 7------------|--------------------------------|
A|--------------------------------|--------------------------------|
E|--------------------------------|--------------------------------|

E|--------------------------------|--------------------------------|
B| 8------------------------------|--------------------------------|
G|--------------------------------|--------------------------------|
D|--------------------------------|--------------------------------|
A|--------------------------------|--------------------------------|
E|--------------------------------|--------------------------------|

E| 5------------------------------|---------------------- 5-- 7--10|
B|---- 6--------------------------|---------- 5-- 6---- 8----------|
G|-------- 7---- 6------ 5------ 4|---- 5-- 7----------------------|
D|------------ 7------ 7------ 7--|--------------------------------|
A|--------------------------------|--------------------------------|
E|--------------------------------|--------------------------------|

E|--------------------------------|--------------------------------|
B|--------------------------------|--------------------------------|
G|--------------------------------|--------------------------------|
D|--------------------------------|--------------------------------|
A|--------------------------------|--------------------------------|
E|--------------------------------|--------------------------------|

E|--------------------------------|------------------------------10|
B|10------1013----1210------------|----------------------10--12----|
G|----------------------12----10--| 9--10------ 910----12----------|
D|--------------------------------|--------12----------------------|
A|--------------------------------|--------------------------------|
E|--------------------------------|--------------------------------|

E|--------------------------------|--------------------------------|
B|----------12--------------------|--------------------------------|
G|--------------------------------|--------------------------------|
D|--------------------------------|--------------------------------|
A|--------------------------------|--------------------------------|
E|--------------------------------|--------------------------------|

E|--------11----10----------------|--------------------------10----|
B|1013----------------1312----10--|--------------10--12--13------12|
G|--------------------------------|12-- 9--10--12------------------|
D|--------------------------------|--------------------------------|
A|--------------------------------|--------------------------------|
E|--------------------------------|--------------------------------|

E|--------------------------10----|--------------------------------|
B|--------------------------------|12------------------------------|
G|--------------------------------|------------12------------------|
D|--------------------------------|--------------------------------|
A|--------------------------------|--------------------------------|
E|--------------------------------|--------------------------------|

E|------------1215--14--13--12----|--------------------------------|
B|----------13------------------15|--13--12--------------12--13--15|
G|----1314------------------------|----------14--12--14------------|
D|--------------------------------|--------------------------------|
A|--------------------------------|--------------------------------|
E|--------------------------------|--------------------------------|

E|--------------------------------|--------------------------------|
B|----------------------12--13--15|------12------------------------|
G|--------------------------------|------------12------------------|
D|--------------------------------|--------------------------------|
A|--------------------------------|--------------------------------|
E|--------------------------------|--------------------------------|

E| 5-- 8 7---- 5------------------|------------------------ 5-- 8--|
B|---------------- 8 6------------| 5-- 6------ 5-- 6-- 8----------|
G|------------------------ 5------|-------- 7----------------------|
D|---------------------------- 7--|--------------------------------|
A|--------------------------------|--------------------------------|
E|--------------------------------|--------------------------------|

E| 7------------------------------|------------------ 7------------|
B|--------------------------------|---- 8--------------------------|
G|--------------------------------|--------------------------------|
D|--------------------------------|--------------------------------|
A|--------------------------------|--------------------------------|
E|--------------------------------|--------------------------------|

E|----------10--12--13--10--------|--------------------------------|
B|10--12--13----------------13----|12--1310--12------10------------|
G|--------------------------------|--------------12--------1012----|
D|--------------------------------|--------------------------------|
A|--------------------------------|--------------------------------|
E|--------------------------------|--------------------------------|

E|--------------------------------|--------------------------------|
B|--------------------------------|--------------------------------|
G| 9----------12------------------|--------------------------------|
D|--------------------------------|--------------------------------|
A|--------------------------------|--------------------------------|
E|--------------------------------|--------------------------------|

E|17--13--------------12----------|------------12--13--12----------|
B|--------15--13--13------15--13--|12--13--15--------------15--13--|
G|--------------------------------|--------------------------------|
D|--------------------------------|--------------------------------|
A|--------------------------------|--------------------------------|
E|--------------------------------|--------------------------------|

E|--------------------------------|--------------------------------|
B|12------------------------------|--------------------------------|
G|--------------------------------|--------------------------------|
D|--------------------------------|--------------------------------|
A|--------------------------------|--------------------------------|
E|--------------------------------|--------------------------------|


8 II-V-I lines

E|17--1617--20--19--17--15----14--|13--12------------------13--17--|
B|--------------------------------|--------15--13--12--15----------|
G|--------------------------------|--------------------------------|
D|--------------------------------|--------------------------------|
A|--------------------------------|--------------------------------|
E|--------------------------------|--------------------------------|

E|15------------------------------|--------------------------------|
B|--------------------------------|--------------------------------|
G|--------------------------------|--------------------------------|
D|--------------------------------|--------------------------------|
A|--------------------------------|--------------------------------|
E|--------------------------------|--------------------------------|

E|--------------------------------|------------------------------ 7|
B| 6-- 8-- 5 6------ 5-- 6-- 8-- 9|--11---- 8 9------ 8-- 9--11----|
G|---------------- 7--------------|--------------10----------------|
D|--------------------------------|--------------------------------|
A|--------------------------------|--------------------------------|
E|--------------------------------|--------------------------------|

E|--------------------------------|--------------------------------|
B|--------------------------------|--------------------------------|
G|--------------------------------|--------------------------------|
D|--------------------------------|--------------------------------|
A|--------------------------------|--------------------------------|
E|--------------------------------|--------------------------------|

E|--------------------------------|--------------------------------|
B| 5-- 8-- 6---------- 5-- 6-- 7--| 8--11-- 9---------- 8-- 911--12|
G|------------ 5-- 7--------------|------------ 8--10--------------|
D|--------------------------------|--------------------------------|
A|--------------------------------|--------------------------------|
E|--------------------------------|--------------------------------|

E|----10--------------------------|--------------------------------|
B|--------13--12------------------|--------------------------------|
G|--------------------------------|--------------------------------|
D|--------------------------------|--------------------------------|
A|--------------------------------|--------------------------------|
E|--------------------------------|--------------------------------|

E|--------------------------------|-------------- 9----------------|
B| 8---- 5------------ 5-- 6-- 8 9|--12--11-- 9------12--11-- 9-- 8|
G|------------ 5-- 7--------------|--------------------------------|
D|--------------------------------|--------------------------------|
A|--------------------------------|--------------------------------|
E|--------------------------------|--------------------------------|

E|--------------------------------|--------------------------------|
B|--------------------------------|--------------------------------|
G|--------------------------------|--------------------------------|
D|--------------------------------|--------------------------------|
A|--------------------------------|--------------------------------|
E|--------------------------------|--------------------------------|

E|--------------------------------|--------------------12--10------|
B| 8-- 7-- 6-- 5------------------|------------10--13----------13--|
G|---------------- 7-- 5----------|--------10----------------------|
D|------------------------ 7-- 8--| 9--12--------------------------|
A|--------------------------------|--------------------------------|
E|--------------------------------|--------------------------------|

E|--------------------------------|--------------------------------|
B|12------------------------------|--------------------------------|
G|--------------------------------|--------------------------------|
D|--------------------------------|--------------------------------|
A|--------------------------------|--------------------------------|
E|--------------------------------|--------------------------------|

E|15--14--1516----17--1615----14--|1312--------------11------------|
B|--------------------------------|--------1513--12--------11------|
G|--------------------------------|--------------------------13--12|
D|--------------------------------|--------------------------------|
A|--------------------------------|--------------------------------|
E|--------------------------------|--------------------------------|

E|--------------------------------|--------------------------------|
B|--------------------------------|--------------------------------|
G|---- 9--10--11------------------|--------------------------------|
D|--------------------------------|--------------------------------|
A|--------------------------------|--------------------------------|
E|--------------------------------|--------------------------------|

E|15--13--------1112--------------| 9-- 7-------- 6----------------|
B|--------13----------15----------|-------- 7---------- 9-------- 8|
G|------------14------------------|------------ 8------------------|
D|--------------------------------|--------------------------------|
A|--------------------------------|--------------------------------|
E|--------------------------------|--------------------------------|

E|--------------------------------|--------------------------------|
B| 8------------------------------|--------------------------------|
G|--------------------------------|--------------------------------|
D|--------------------------------|--------------------------------|
A|--------------------------------|--------------------------------|
E|--------------------------------|--------------------------------|

E|1920--19--17--15----1413--12--11|--------------------------------|
B|--------------------------------|--12--11------------------------|
G|--------------------------------|------------13--12--------------|
D|--------------------------------|----------------------13----12--|
A|--------------------------------|--------------------------------|
E|--------------------------------|--------------------------------|


8 II-V-I lines

E|------------------------------12|----1312----10 9----------------|
B|----------------------10--13----|--------------------1211---- 9--|
G|12----------1110----12----------|--------------------------------|
D|--------------------------------|--------------------------------|
A|--------------------------------|--------------------------------|
E|--------------------------------|--------------------------------|

E|--------------------------------|--------------------------------|
B| 8------------------------------|--------------------------------|
G|--------------------------------|--------------------------------|
D|--------------------------------|--------------------------------|
A|--------------------------------|--------------------------------|
E|--------------------------------|--------------------------------|

E|15--------13--12----------------|--------------------------------|
B|----------------------------1514|------------12------------------|
G|--------------------------------|--------------15------------1312|
D|--------------------------------|--------------------------------|
A|--------------------------------|--------------------------------|
E|--------------------------------|--------------------------------|

E|--------------------------------|--------------------------------|
B|--------------------------------|--------------------------------|
G|--------------------------------|--------------------------------|
D|--------------------------------|--------------------------------|
A|--------------------------------|--------------------------------|
E|--------------------------------|--------------------------------|

E|15--13--------1112--------------| 9-- 7-------- 6----------------|
B|--------14--12------15----------|------ 8---- 6------ 9-------- 8|
G|--------------------------------|--------------------------------|
D|--------------------------------|--------------------------------|
A|--------------------------------|--------------------------------|
E|--------------------------------|--------------------------------|

E|--------------------------------|--------------------------------|
B|--------------------------------|--------------------------------|
G|--------------------------------|--------------------------------|
D|--------------------------------|--------------------------------|
A|--------------------------------|--------------------------------|
E|--------------------------------|--------------------------------|

E|--------------------------------|------------12----11--10----15--|
B|------------11------10-- 9--14--|--13--12------------------------|
G|12--11--10----------------------|--------------------------------|
D|--------------------------------|--------------------------------|
A|--------------------------------|--------------------------------|
E|--------------------------------|--------------------------------|

E|--------------------------------|--------------------------------|
B|--------------------------------|--------------------------------|
G|--------------------------------|--------------------------------|
D|--------------------------------|--------------------------------|
A|--------------------------------|--------------------------------|
E|--------------------------------|--------------------------------|

E|--------------------------------|--------------12----1315----1615|
B|13----10------------------------|11--12--14--15------------------|
G|--------10---- 9----10--12--13--|--------------------------------|
D|------------12------------------|--------------------------------|
A|--------------------------------|--------------------------------|
E|--------------------------------|--------------------------------|

E|--------------------------------|--------------------------------|
B|--------------------------------|--------------------------------|
G|--------------------------------|--------------------------------|
D|--------------------------------|--------------------------------|
A|--------------------------------|--------------------------------|
E|--------------------------------|--------------------------------|

E|--------------------------------|--------------------------------|
B| 6-- 8-- 5-- 6---- 5-- 6-- 8----| 9--11-- 8 9------ 8-- 9----11--|
G|-------------- 7----------------|--------------10----------------|
D|--------------------------------|--------------------------------|
A|--------------------------------|--------------------------------|
E|--------------------------------|--------------------------------|

E|--------------------------------|--------------------------------|
B|12------------------------------|--------------------------------|
G|--------------------------------|--------------------------------|
D|--------------------------------|--------------------------------|
A|--------------------------------|--------------------------------|
E|--------------------------------|--------------------------------|

E|--------------------------------|------------12------ 910----15--|
B|------------11------ 8 9----14--|----1112------------------------|
G|12-- 910------------------------|--------------------------------|
D|--------------------------------|--------------------------------|
A|--------------------------------|--------------------------------|
E|--------------------------------|--------------------------------|

E|--------------------------------|--------------------------------|
B|--------------------------------|--------------------------------|
G|--------------------------------|--------------------------------|
D|--------------------------------|--------------------------------|
A|--------------------------------|--------------------------------|
E|--------------------------------|--------------------------------|

E|--------------------------------|------12----10--15--13--18--16--|
B|----------------------11---- 9--|14--12--------------------------|
G|------ 9------12----10----------|--------------------------------|
D|11-- 9------12------------------|--------------------------------|
A|--------------------------------|--------------------------------|
E|--------------------------------|--------------------------------|

E|14------------------------------|--------------------------------|
B|--------------------------------|--------------------------------|
G|--------------------------------|--------------------------------|
D|--------------------------------|--------------------------------|
A|--------------------------------|--------------------------------|
E|--------------------------------|--------------------------------|


8 II-V-I lines

E|--------------------------------|----------13--15------------17--|
B|--------------------------14--16|--------------------------------|
G|12----------1416----------------|--------------------------------|
D|--------------------------------|--------------------------------|
A|--------------------------------|--------------------------------|
E|--------------------------------|--------------------------------|

E|19------------------------------|--------------------------------|
B|--------------------------------|--------------------------------|
G|--------------------------------|--------------------------------|
D|--------------------------------|--------------------------------|
A|--------------------------------|--------------------------------|
E|--------------------------------|--------------------------------|

E|15--13--11--13------11------11--|--------------------------------|
B|------------------------14------|----14--12--14------12--10--12--|
G|--------------------------------|--------------------------------|
D|--------------------------------|--------------------------------|
A|--------------------------------|--------------------------------|
E|--------------------------------|--------------------------------|

E|--------------------------------|--------------------------------|
B|--------------------------------|--------------------------------|
G|--------------------------------|--------------------------------|
D|--------------------------------|--------------------------------|
A|--------------------------------|--------------------------------|
E|--------------------------------|--------------------------------|

E|--------11------------13--------|------15--------------17------19|
B|----12--------------14----------|--16--------------18------------|
G|12------------14--------------16|--------------18----------------|
D|--------------------------------|--------------------------------|
A|--------------------------------|--------------------------------|
E|--------------------------------|--------------------------------|

E|--------------------------------|--------------------------------|
B|--------------------------------|--------------------------------|
G|--------------------------------|--------------------------------|
D|--------------------------------|--------------------------------|
A|--------------------------------|--------------------------------|
E|--------------------------------|--------------------------------|

E|15--11--------13---- 9--------11|-- 7---------- 9-- 5------------|
B|------12--------------10--------|------ 8-------------- 6--------|
G|------------12------------10----|---------- 8-------------- 6-- 7|
D|--------------------------------|--------------------------------|
A|--------------------------------|--------------------------------|
E|--------------------------------|--------------------------------|

E|--------------------------------|--------------------------------|
B|--------------------------------|--------------------------------|
G|--------------------------------|--------------------------------|
D|--------------------------------|--------------------------------|
A|--------------------------------|--------------------------------|
E|--------------------------------|--------------------------------|

E|----15--13----------11-- 9------|---- 7-- 5---------- 3-- 1------|
B|16----------14--12----------10--| 8---------- 6-- 4---------- 2--|
G|--------------------------------|--------------------------------|
D|--------------------------------|--------------------------------|
A|--------------------------------|--------------------------------|
E|--------------------------------|--------------------------------|

E|--------------------------------|--------------------------------|
B| 3------------------------------|--------------------------------|
G|--------------------------------|--------------------------------|
D|--------------------------------|--------------------------------|
A|--------------------------------|--------------------------------|
E|--------------------------------|--------------------------------|

E|11----------11-- 9---------- 9--| 7---------- 7-- 5---------- 5--|
B|--------12------------10--------|-------- 8-------------- 6------|
G|----12--------------10----------|---- 8-------------- 6----------|
D|--------------------------------|--------------------------------|
A|--------------------------------|--------------------------------|
E|--------------------------------|--------------------------------|

E| 3------------------------------|--------------------------------|
B|--------------------------------|--------------------------------|
G|--------------------------------|--------------------------------|
D|--------------------------------|--------------------------------|
A|--------------------------------|--------------------------------|
E|--------------------------------|--------------------------------|

E|--------------------------------|--------------------------------|
B|--------------------10----------|----12--------------14----------|
G|--------------10------10----11--|12------12--1314--------14--1516|
D|--------------------------------|--------------------------------|
A|--------------------------------|--------------------------------|
E|--------------------------------|--------------------------------|

E|--------------------------------|--------------------------------|
B|--------------------------------|--------------------------------|
G|--------------------------------|--------------------------------|
D|--------------------------------|--------------------------------|
A|--------------------------------|--------------------------------|
E|--------------------------------|--------------------------------|

E|------------1215----1413--12--11|----------11--------------------|
B|----------13--------------------|--12--14------14----1210--------|
G|----1314------------------------|----------------------------1211|
D|--------------------------------|--------------------------------|
A|--------------------------------|--------------------------------|
E|--------------------------------|--------------------------------|

Visita mi Blog
http://musicoadictos.wordpress.com/

Subir
#33 por chinozgz el 11/01/2008
Que gran idea lo de este hilo. Y la cantidad de trabajo que habeis puesto. He intentado alguna cosilla, y hay algunos chulísimos. +1 para el creador del post, Josep, y para los que han aportado material (sondraco, tentaco93 y Alexis).

A ver cuando tengo un rato y subo alguno que tengo por ahí sencillito y resulton.

Por cierto Josep, yo tambien pondria esos 20 mejores licks de la historia en otro orden.

A saco con ellos.
Subir
#34 por josep el 24/02/2008
Algunos licks neoclásicos


Lick 1:
neo11.jpg
Lick 2 (notas pedal):
neo21.jpg
Lick 3 (escala menor armónica):
neo31.jpg
Lick 4 (modo frigio):
neo41.jpg
Este lick es la “intro” de Far beyond the sun, de Yngwie Malmsteen. Yngwie afina en Mi b, pero yo he puesto el ejercicio en Mi para que no tengas que andar cambiando de afinación para tocar este ejercicio.
neofbts1.jpg

[LEFT]Licks extraidos de Bloguitar[/LEFT]

Visita mi Blog
http://musicoadictos.wordpress.com/

Subir
#35 por alexis el 28/02/2008
- Este es una cacho de la mítica Rockin all over the world, de Status Quo


------------------v------v---ibrar jeje
E|---------------------------
B|----0--1--2------0------
G|-2------------2------2--
D|--------------------------
A|--------------------------
E|---------------------------

- Puede servir como final o para enlazar con otros licks ... saludos !:yahoo:

"Magia de Rock and Roll, la primera cancion y ya estoy bien ! "

Subir
#36 por josep el 01/03/2008
Aqui os dejo unos cuantos licks mas.

Blues Licks Exercises I
Written by Dirk Hagemann
Blues Licks Exercise I

Author unknown
Difficulty medium
Notes -

Bends-Slides-Hammer-Ons-Vibratos


Legend: b = Bend r = Release h =Hammer On p = Pull Off v o. ~ = Vibrato / o. \ = Slide ~ = Vibrato


exercise1.gif

Blues Licks Exercises II
Written by Dirk Hagemann
Blues Licks Exercise II

Author Fritz Mayr
Difficulty medium
Notes -

Blues-Lick-Exercise



exercise2.gif


Blues-Rock-Solo-Practice
Written by Dirk Hagemann
Blues-Rock-Solo-Practice

Author Joe Spiro
Difficulty medium - heavy



exercise3.gif


Easy Blues Solo in A
Written by Dirk Hagemann
Easy Blues Solo in A

Author Dirk Hagemann
Difficulty easy-medium



easy%20solo%20in%20a.jpg


Arpeggio-Licks
Written by Dirk Hagemann
Arpeggio-Licks

Author unknown
Difficulty medium



arplicks1.gif


Easy Acoustic Blues I
Written by Dirk Hagemann

Easy Acoustic Blues I

Author: Dirk Hagemann
Difficulty easy



easy_acoustic_blues1.jpg


Easy Acoustic Blues II
Written by Dirk Hagemann
Easy Acoustic Blues II

Author Dirk Hagemann



easy%20acoustic%20blues2.jpg

Visita mi Blog
http://musicoadictos.wordpress.com/

Subir
Respuesta rápida

Regístrate o para poder postear en este hilo