Libreria de licks

#13 por josep el 31/12/2007
Gracias por vuestro interes, como decia in flames1703, si esto llega a interesar no se si tendriamos que poner una encuesta para poder tener un apartado.

Toni, si lees esto dinos algo

Visita mi Blog
http://musicoadictos.wordpress.com/

Subir
#14 por alex_ztr el 31/12/2007
me buena la propues man!!!

creo que los liks y frases son un tema muy importante a la hora de improvisar y componer!!;)
Subir
#15 por josep el 06/01/2008
Toni me comento en privado que por ahora no es factible abrir un foro nuevo dedicado a los liks, ya que tenemos mas de cien abiertos en la web.

Pero podemos ir subiendolos aqui y si la cosa funciona, entonces se podria reconsiderar.

Asi que ya sabeis, ir subiendo liks

Visita mi Blog
http://musicoadictos.wordpress.com/

Subir
#16 por KikeAOR el 06/01/2008
Oido cocina ;)
Subir
#17 por alexis el 06/01/2008
Ahí va un lick bluserillo / rock, fue de las primeras cosas que aprendí.

bluesforolicec1.th.jpg

Bueno a ver si sale bien la imagen, que soy un poco negado colgando imagenes.

Por cierto, muy buen post :)

"Magia de Rock and Roll, la primera cancion y ya estoy bien ! "

Subir
#18 por josep el 06/01/2008
Alexis escribió:
Ahí va un lick bluserillo / rock, fue de las primeras cosas que aprendí.

http://img295.imageshack.us/img295/1841/bluesforolicec1.th.jpg

Bueno a ver si sale bien la imagen, que soy un poco negado colgando imagenes.

Por cierto, muy buen post :)


Gracias Alexis, mas tarde pondre en practica tu aportacion

Visita mi Blog
http://musicoadictos.wordpress.com/

Subir
#19 por alexis el 06/01/2008
A ti, por este post ;)

"Magia de Rock and Roll, la primera cancion y ya estoy bien ! "

Subir
#20 por daktari el 06/01/2008
Adelante, seguro q a mucha gente le vendrá muy bien.

Saludos



¡Menos mal que no somos mancos! Y&T

Subir
#21 por josep el 07/01/2008
Os dejo estos 13 licks, espero que sean de vuestro agrado.

Lick 1: Lick 2:
|-----------------------5--|--------------------------------------|
|--------------------------|--------------------------------------|
|-8--7--5--7(BU)--5--------|----------------------------8--7------|
|--------------------7-----|----------------------------7--6------|
|--------------------------|-------4--4--5--5--6--6--7--8--7------|
|--------------------------|-5--5---------------------------------|
Lick 3: (Slide into the Notes...) Lick 4: (Also Slide in the Notes...)

|-----12----------11----------10------8--|----------------5-------|
|-12------12--11------11--10------10--8--|-5--7--5--7-------------|
|-------------------------------------9--|-------------6----------|
|----------------------------------------|-5--7--5--7-------------|
|----------------------------------------|------------------------|
|----------------------------------------|------------------------|

Lick 5:

|-------------------------------------7(BU)--5-------------|
|-------------------------------5--------------------------|
|----------------------5--7--8-----7-----------------------|
|----------5-----5--7--------------------------------------|
|-5--6--7-----7--------------------------------------------|
|----------------------------------------------------------|


Lick 6

|--7(BU,RE)--5-------------------------------5-----------|
|---------------7(BU,RE)--5------------------------------|
|----------------------------7(BU,RE)--5-----------------|
|-----------------------------------------7--------------|
|--------------------------------------------------------|
|--------------------------------------------------------|

Lick 7 Lick 8


|--5--7(HO)--5-----5----|--------------------------------|
|--5--7(HO)--5-----5----|--------------------------------|
|---------------7--6----|--5--7(HO)--5-----5-------------|
|-----------------------|--5--7(HO)--5-----5-------------|
|-----------------------|---------------8--7-------------|
|-----------------------|--------------------------------|
Lick 9
|------------5-------------------------------------------------|
|---------5-----8(PO)--5-----5---------------------------------|
|--7(BU)------------------8-----8--7(PO)--5(PO)----7-----5(V)--|
|------------------------------------------------7----7--------|
|--------------------------------------------------------------|
|--------------------------------------------------------------|

Lick 10
|----------12--15--11(SL)--12----------------------------------|
|------13----------------------13------------------------------|
|--14------------------------------14--12----------------------|
|------------------------------------------14--13--12(V)-------|
|--------------------------------------------------------------|
|--------------------------------------------------------------|

Lick 11
|-----------------------8--7--5--------------------------------|
|--------------------------------5(SL)--7--5-------------------|
|--------------------------------------------------------------|
|-----------------5--------------5(SL)--7--5--------------2----|
|--------5--6--7-----7---------------------------0--1--2-------|
|--5--8---------------------------------------0----------------|

Lick 12
|--------------------------------------------------------------|
|--5---------5---------5---------5-----------------------------|
|-----7(BU)-----7(BU)-----7(BU)-----7--5--4--5(HO)-------------|
|---------------------------------------------------7----------|
|--------------------------------------------------------------|
|--------------------------------------------------------------|

Lick 13
|--5--8-----5--------------------------------------------------|
|--------8-----8--5--8-----5-----------------------------------|
|-----------------------8-----7--8-----5(V)--------------------|
|-----------------------------------7--------------------------|
|--------------------------------------------------------------|
|--------------------------------------------------------------|
---------------------------------
Aqui van otros ejercicios, a practicar...

Nota: Las P sobre alguna nota indican que esa nota se logra "tirando" (pull off en inglés) la cuerda con el dedo que anteriormente estaba martilleando (hammer on en inglés), lo anterior (el martilleo) se denota con un H sobre la nota.

Ejercicio 1

Esta es una clásica de tapping, el comienzo de "Thunderstruck" de AC/DC. Angus me mataría si escuchara esta versión... de todas formas se parece un poco y sirve para hacerse una 2da idea del tapping.


P H H P H H P H H P H H P H H P H H P H H P H H...
E|-------------------------------------------------------------|
B|--0-4-7--0-4-7--0-4-7--0-4-7--0-5-8--0-5-8--0-5-8--0-5-8-----|
G|-------------------------------------------------------------|
D|-------------------------------------------------------------|
A|-------------------------------------------------------------|
E|-------------------------------------------------------------|

Ejercicio 2

Este es el solo de una canción que hice hace ya bastante tiempo, y como no era demasiado rápido con los dedos es puro tapping, nada de otro mundo, pero impresiona un poco...


P H H P H H... P H H
E|--12-15-16--12-15-16--12-15-16--12-15-16--12-15-16-----------|
B|----------------------------------------------------13-15-17-|
G|-------------------------------------------------------------|
D|-------------------------------------------------------------|
A|-------------------------------------------------------------|
E|-------------------------------------------------------------|


P H H... P H H P H H...
E|------------------------------------------10-12-13--10-12-13-|
B|--13-15-17--13-15-17--13-15-17--13-15-17---------------------|
G|-------------------------------------------------------------|
D|-------------------------------------------------------------|
A|-------------------------------------------------------------|
E|-------------------------------------------------------------|

P H P H P H
E|--10-12-13--10-12-13--10-12-13--12-15--12-15--12-15-15-15----|
B|-------------------------------------------------------------|
G|-------------------------------------------------------------|
D|-------------------------------------------------------------|
A|-------------------------------------------------------------|
E|-------------------------------------------------------------|

Ejerccio 3

Me tomo la licencia de reproducir una lección que aparece en un libro, con ciertas modificaciones que además de hacer la lección más interesante me evitan problemas legales...


E|-------------------------------------------------------------|
B|--9-0-2-4----------------------9-0-2-4-----------------------|
G|-----------10-0-2-4---------------------10-0-2-4-------------|
D|---------------------11-0-2-4---------------------9-0-2-4----|
A|-------------------------------------------------------------|
E|-------------------------------------------------------------|

Ejercicio 4

Idem que el ejercicio anterior...


E|-------------------------------------------------------------|
B|--5-8-12--5-8-11--5-8-10--5-8-10--5-8-11--5-8-12--5-8-12-etc.|
G|-------------------------------------------------------------|
D|-------------------------------------------------------------|
A|-------------------------------------------------------------|
E|-------------------------------------------------------------|

Ejercicio 5

Este es el riff principal de la canción "Angustiado, Desauciado" del grupo chileno Los Bandoleros. Una onda muy "Country western folk ranchera" que hace que la canción suene muy divertida (por lo menos a mi me parece así...)


P H H P H H...
E|-------------------------------------------------------------|
B|---------8-9-12--8-9-12--8-9-12--8-9-12--8-9-12--------------|
G|------9------------------------------------------8-9-11------|
D|-9-11--------------------------------------------------------|
A|-------------------------------------------------------------|
E|-------------------------------------------------------------|

E|-------------------------------------------------------------|
B|-------------------------------------------------------------|
G|-8-9-11--8-9-11--8-9-11--8-9-11------------------------------|
D|---------------------------------9-11-14--9-11-14--9-11-14---|
A|-------------------------------------------------------------|
E|-------------------------------------------------------------|

E|-------------------------------------------------------------|
B|-------------------------------------------------------------|
G|-------------------------------------------------------------|
D|-9-11-14--9-11-14--10-11-14--10-11-14--10-11-14--10-11-14----|
A|-------------------------------------------------------------|
E|-------------------------------------------------------------|

E|-------------------------------------------------------------|
B|-----------8-9-12--8-9-12--8-9-12--8-9-12--8-9-12------------|
G|---------------------------------------------------8-9-11----|
D|-10-11-14----------------------------------------------------|
A|-------------------------------------------------------------|
E|-------------------------------------------------------------|

E|-------------------------------------------------------------|
B|-------------------------------------------------------------|
G|-8-9-11--8-9-11--8-9-11--8-9-11------------------------------|
D|---------------------------------9-11-14--9-11-14--9-11-14---|
A|-------------------------------------------------------------|
E|-------------------------------------------------------------|

E|-------------------------------------------------------------|
B|-------------------8-9-12--8-9-12--8-9-12--------------------|
G|-------------------------------------------8-9---------------|
D|-9-11-14--9-11-14--------------------------------------------|
A|-------------------------------------------------------------|
E|-------------------------------------------------------------|

Ejercicio 6

Este es bastante simple y se puede utilizar como relleno en algún solo o algo así, la idea es usar solamente los dedos de la mano que digita, de preferencia el índice y el dedo medio, retirando este último (que es el dedo con que empiezas el ejercicio) una vez que se ha martilleado la primera nota.


H H P H H P H H P...
E|-3-2-0--3-2-0--3-2-0--3-2-0--3-2-0--infinitas veces...-------|
B|-------------------------------------------------------------|
G|-------------------------------------------------------------|
D|-------------------------------------------------------------|
A|-------------------------------------------------------------|
E|-------------------------------------------------------------|

Ejercicio 7

Este es muy parecido al anterior (demasiado...), pero la diferencia radica en el sonido y los dedos que se utilizarán. Esta vez harás el "tapping" con los dedos anular e índice de la mano que digita, siguiendo la misma idea del ejercicio anterior, pero empezando con el anular.


H H P H H P H H P...
E|-5-3-0--5-3-0--5-3-0--5-3-0--5-3-0--infinitas veces...-------|
B|-------------------------------------------------------------|
G|-------------------------------------------------------------|
D|-------------------------------------------------------------|
A|-------------------------------------------------------------|
E|-------------------------------------------------------------|

Hay otros dos ejercicios de tapping que puse en la lección 9, junto con la segunda serie de ejercicios de digitación, aunque en realidad corresponden a ejercicios de ligados, pero en el fondo los ligados son una de las bases del tapping.
Slapping

Esta técnica suele conocerse más para interpretes de bajo, pero (algo de historia) un día tocando con unos amigos me tocó hacer las de bajista usando mi guitarra y un efecto que baja una octava las notas de la guitarra, descubrí que se puede hacer slapping en una guitarra. Claro que después escuche que Jimmy Pge también hacía algo similar en algunos recitales, aunque no me consta, sólo imagínense a Flea (bajista de los Red Hot) con una guitarra en las manos.

La idea del slapping es hacer rebotar la cuerda sobre el brazo de la guitarra, levantándola ligeramente con los dedos (con uñeta no les va a resultar) y soltándola. Al principio prueben pelliscando las cuerdas una a una y dejándolas caer, una vez que dominen eso pueden tratar levantándolas sólo con el dedo pulgar ó bien con el índice. El sónido generado es una extraña mezcla entre patos y resortes en una proporción aproximada de 1:5.

Mis disculpas, sólo tres lecciones de esta técnica, pero para mayor cantidad de ejemplos escuchen bajistas de grupos funk y traten de aislar el bajo. Así también aprovechan de ejercitar el oído.

Ejercicio 1

Los que alguna vez jugaron Super Mario Bros van a identificar este ejercicio. Es fácil. No fuercen demasiado las cuerdas al levantarlas más de su resistencia natural, si lo hacen es muy probable que estas se corten.

E|-------------------------------------------------------------|
B|-------------------------------------------------------------|
G|-------------------------------------------------------------|
D|---7----5----7----5------------------------------------------|
A|-5----3----5----3------7----5----7----5----------------------|
E|---------------------5----3----5----3------------------------|

Ejercicio 2

Este corresponde al bajo de un acompañamiento de un teclado eléctrónico YAMAHA PSR 180, si mal no recuerdo. No es tan fácil, pero tampoco muy difícil, y tocarla en bajo es un suplicio. La primera parte se toca 4 veces y la segunda otras 4.

E|--------------------------------------||---------------------|
B|--------------------------------------||---------------------|
G|---------3-3--------------------------||---------------------|
D|-----0-3-----3-0-3----------4-4-------||--1---1-1---1--------|
A|-1-1--------------------1-4-----4-1-4-||----1-----1---1------|
E|--------------------2-2---------------||---------------------|

E|----------------||-------------------------------------------|
B|----------------||-------------------------------------------|
G|----------------||-------------------------------------------|
D|----------------||-------------------------------------------|
A|--2---2-2---2---||-------------------------------------------|
E|----2-----2---2-||-------------------------------------------|

Ejercicio 3

Esto corresponde a la criminalización de la guitarra y bajo de la canción "Sinfonía de Cuna" del grupo chileno Chancho en Piedra. Según mi apreciación slapeando la guitarra suena bakán, ahora que sea cierto es otra cosa...


E|-------------------------------------------------------------|
B|-----5-7-5------------5-7-8-7-5-0------5-7-5------------5----|
G|-4-6-------6-4-5--4-6--------------4-6-------6-4-5--4-6------|
D|-------------------------------------------------------------|
A|-------------------------------------------------------------|
E|-------------------------------------------------------------|

E|---------------|---------------------------------------------|
B|-----7-8-7-5-0-|---------------------------------------------|
G|-4-6-----------|---------------------------------------------|
D|---------------|---------------------------------------------|
A|---------------|-----7-9-7------------7-9-10-9-7--------7-9-7|
E|---------------|-7-9-------9-7-8--7-9------------7--7-9------|

E|-------------------------------------------------------------|
B|-------------------------------------------------------------|
G|-------------------------------------------------------------|
D|-------------------------------------------------------------|
A|------------7-----9-10-9-7-----------------------------------|
E|-9-7-8--7-9---7-9----------7---------------------------------|
---------------------------------
Josep escribió:
Os dejo estos 13 licks, espero que sean de vuestro agrado.

Lick 1: Lick 2:
|-----------------------5--|--------------------------------------|
|--------------------------|--------------------------------------|
|-8--7--5--7(BU)--5--------|----------------------------8--7------|
|--------------------7-----|----------------------------7--6------|
|--------------------------|-------4--4--5--5--6--6--7--8--7------|
|--------------------------|-5--5---------------------------------|
Lick 3: (Slide into the Notes...) Lick 4: (Also Slide in the Notes...)

|-----12----------11----------10------8--|----------------5-------|
|-12------12--11------11--10------10--8--|-5--7--5--7-------------|
|-------------------------------------9--|-------------6----------|
|----------------------------------------|-5--7--5--7-------------|
|----------------------------------------|------------------------|
|----------------------------------------|------------------------|

Lick 5:

|-------------------------------------7(BU)--5-------------|
|-------------------------------5--------------------------|
|----------------------5--7--8-----7-----------------------|
|----------5-----5--7--------------------------------------|
|-5--6--7-----7--------------------------------------------|
|----------------------------------------------------------|


Lick 6

|--7(BU,RE)--5-------------------------------5-----------|
|---------------7(BU,RE)--5------------------------------|
|----------------------------7(BU,RE)--5-----------------|
|-----------------------------------------7--------------|
|--------------------------------------------------------|
|--------------------------------------------------------|

Lick 7 Lick 8


|--5--7(HO)--5-----5----|--------------------------------|
|--5--7(HO)--5-----5----|--------------------------------|
|---------------7--6----|--5--7(HO)--5-----5-------------|
|-----------------------|--5--7(HO)--5-----5-------------|
|-----------------------|---------------8--7-------------|
|-----------------------|--------------------------------|
Lick 9
|------------5-------------------------------------------------|
|---------5-----8(PO)--5-----5---------------------------------|
|--7(BU)------------------8-----8--7(PO)--5(PO)----7-----5(V)--|
|------------------------------------------------7----7--------|
|--------------------------------------------------------------|
|--------------------------------------------------------------|

Lick 10
|----------12--15--11(SL)--12----------------------------------|
|------13----------------------13------------------------------|
|--14------------------------------14--12----------------------|
|------------------------------------------14--13--12(V)-------|
|--------------------------------------------------------------|
|--------------------------------------------------------------|

Lick 11
|-----------------------8--7--5--------------------------------|
|--------------------------------5(SL)--7--5-------------------|
|--------------------------------------------------------------|
|-----------------5--------------5(SL)--7--5--------------2----|
|--------5--6--7-----7---------------------------0--1--2-------|
|--5--8---------------------------------------0----------------|

Lick 12
|--------------------------------------------------------------|
|--5---------5---------5---------5-----------------------------|
|-----7(BU)-----7(BU)-----7(BU)-----7--5--4--5(HO)-------------|
|---------------------------------------------------7----------|
|--------------------------------------------------------------|
|--------------------------------------------------------------|

Lick 13
|--5--8-----5--------------------------------------------------|
|--------8-----8--5--8-----5-----------------------------------|
|-----------------------8-----7--8-----5(V)--------------------|
|-----------------------------------7--------------------------|
|--------------------------------------------------------------|
|--------------------------------------------------------------|
---------------------------------
Aqui van otros ejercicios, a practicar...

Nota: Las P sobre alguna nota indican que esa nota se logra "tirando" (pull off en inglés) la cuerda con el dedo que anteriormente estaba martilleando (hammer on en inglés), lo anterior (el martilleo) se denota con un H sobre la nota.

Ejercicio 1

Esta es una clásica de tapping, el comienzo de "Thunderstruck" de AC/DC. Angus me mataría si escuchara esta versión... de todas formas se parece un poco y sirve para hacerse una 2da idea del tapping.


P H H P H H P H H P H H P H H P H H P H H P H H...
E|-------------------------------------------------------------|
B|--0-4-7--0-4-7--0-4-7--0-4-7--0-5-8--0-5-8--0-5-8--0-5-8-----|
G|-------------------------------------------------------------|
D|-------------------------------------------------------------|
A|-------------------------------------------------------------|
E|-------------------------------------------------------------|

Ejercicio 2

Este es el solo de una canción que hice hace ya bastante tiempo, y como no era demasiado rápido con los dedos es puro tapping, nada de otro mundo, pero impresiona un poco...


P H H P H H... P H H
E|--12-15-16--12-15-16--12-15-16--12-15-16--12-15-16-----------|
B|----------------------------------------------------13-15-17-|
G|-------------------------------------------------------------|
D|-------------------------------------------------------------|
A|-------------------------------------------------------------|
E|-------------------------------------------------------------|


P H H... P H H P H H...
E|------------------------------------------10-12-13--10-12-13-|
B|--13-15-17--13-15-17--13-15-17--13-15-17---------------------|
G|-------------------------------------------------------------|
D|-------------------------------------------------------------|
A|-------------------------------------------------------------|
E|-------------------------------------------------------------|

P H P H P H
E|--10-12-13--10-12-13--10-12-13--12-15--12-15--12-15-15-15----|
B|-------------------------------------------------------------|
G|-------------------------------------------------------------|
D|-------------------------------------------------------------|
A|-------------------------------------------------------------|
E|-------------------------------------------------------------|

Ejerccio 3

Me tomo la licencia de reproducir una lección que aparece en un libro, con ciertas modificaciones que además de hacer la lección más interesante me evitan problemas legales...


E|-------------------------------------------------------------|
B|--9-0-2-4----------------------9-0-2-4-----------------------|
G|-----------10-0-2-4---------------------10-0-2-4-------------|
D|---------------------11-0-2-4---------------------9-0-2-4----|
A|-------------------------------------------------------------|
E|-------------------------------------------------------------|

Ejercicio 4

Idem que el ejercicio anterior...


E|-------------------------------------------------------------|
B|--5-8-12--5-8-11--5-8-10--5-8-10--5-8-11--5-8-12--5-8-12-etc.|
G|-------------------------------------------------------------|
D|-------------------------------------------------------------|
A|-------------------------------------------------------------|
E|-------------------------------------------------------------|

Ejercicio 5

Este es el riff principal de la canción "Angustiado, Desauciado" del grupo chileno Los Bandoleros. Una onda muy "Country western folk ranchera" que hace que la canción suene muy divertida (por lo menos a mi me parece así...)


P H H P H H...
E|-------------------------------------------------------------|
B|---------8-9-12--8-9-12--8-9-12--8-9-12--8-9-12--------------|
G|------9------------------------------------------8-9-11------|
D|-9-11--------------------------------------------------------|
A|-------------------------------------------------------------|
E|-------------------------------------------------------------|

E|-------------------------------------------------------------|
B|-------------------------------------------------------------|
G|-8-9-11--8-9-11--8-9-11--8-9-11------------------------------|
D|---------------------------------9-11-14--9-11-14--9-11-14---|
A|-------------------------------------------------------------|
E|-------------------------------------------------------------|

E|-------------------------------------------------------------|
B|-------------------------------------------------------------|
G|-------------------------------------------------------------|
D|-9-11-14--9-11-14--10-11-14--10-11-14--10-11-14--10-11-14----|
A|-------------------------------------------------------------|
E|-------------------------------------------------------------|

E|-------------------------------------------------------------|
B|-----------8-9-12--8-9-12--8-9-12--8-9-12--8-9-12------------|
G|---------------------------------------------------8-9-11----|
D|-10-11-14----------------------------------------------------|
A|-------------------------------------------------------------|
E|-------------------------------------------------------------|

E|-------------------------------------------------------------|
B|-------------------------------------------------------------|
G|-8-9-11--8-9-11--8-9-11--8-9-11------------------------------|
D|---------------------------------9-11-14--9-11-14--9-11-14---|
A|-------------------------------------------------------------|
E|-------------------------------------------------------------|

E|-------------------------------------------------------------|
B|-------------------8-9-12--8-9-12--8-9-12--------------------|
G|-------------------------------------------8-9---------------|
D|-9-11-14--9-11-14--------------------------------------------|
A|-------------------------------------------------------------|
E|-------------------------------------------------------------|

Ejercicio 6

Este es bastante simple y se puede utilizar como relleno en algún solo o algo así, la idea es usar solamente los dedos de la mano que digita, de preferencia el índice y el dedo medio, retirando este último (que es el dedo con que empiezas el ejercicio) una vez que se ha martilleado la primera nota.


H H P H H P H H P...
E|-3-2-0--3-2-0--3-2-0--3-2-0--3-2-0--infinitas veces...-------|
B|-------------------------------------------------------------|
G|-------------------------------------------------------------|
D|-------------------------------------------------------------|
A|-------------------------------------------------------------|
E|-------------------------------------------------------------|

Ejercicio 7

Este es muy parecido al anterior (demasiado...), pero la diferencia radica en el sonido y los dedos que se utilizarán. Esta vez harás el "tapping" con los dedos anular e índice de la mano que digita, siguiendo la misma idea del ejercicio anterior, pero empezando con el anular.


H H P H H P H H P...
E|-5-3-0--5-3-0--5-3-0--5-3-0--5-3-0--infinitas veces...-------|
B|-------------------------------------------------------------|
G|-------------------------------------------------------------|
D|-------------------------------------------------------------|
A|-------------------------------------------------------------|
E|-------------------------------------------------------------|


---------------------------------
En esta Web encontrareis treinta Licks en TAB, haciendo click en la tablatura podeis escucharla, hay Jazz, Blues y Rock
:ok:
Rock Blues Jazz Guitar - Free Licks and Tabs

Los veinte mejores Licks de la Historia (podrian estar en diferente orden, para mi gusto)

Visita mi Blog
http://musicoadictos.wordpress.com/

Subir
#22 por choki el 08/01/2008
Joer Josep, como te lo curras!!! Cuando llegue a casa a ver si me pongo a probar alguno a ver que tal suena.

+1
Subir
#23 por KikeAOR el 08/01/2008
Te mereces un +1 tio!!. A ver si puedo sacar un poco de tiempo para recopilar alguna cosillas y lo subo ;)
Subir
#24 por josep el 08/01/2008
choki escribió:
Joer Josep, como te lo curras!!! Cuando llegue a casa a ver si me pongo a probar alguno a ver que tal suena.

+1


Gracias Choki, ahora ya no hay excusa para no trabajar :D
---------------------------------
in_flames1703 escribió:
Te mereces un +1 tio!!. A ver si puedo sacar un poco de tiempo para recopilar alguna cosillas y lo subo ;)


Gracias In-Flames, tranquilo hombre, ya subiras algo cuando puedas :ok:

Visita mi Blog
http://musicoadictos.wordpress.com/

Subir
Respuesta rápida

Regístrate o para poder postear en este hilo