Hola, Ayuda con ejercicios

#1 por jordy4 el 15/10/2009
Hola soy nuevo en guitarristas.info y no se muy bien como estan las reglas, pero e estado en otros foros y se como funciona.

EL punto es que, desde hace tiempo e estado buscadondo la respuesta a muchas de mis dudas, y creo que llegue al mejor lugar para esto.
Mis dudas son:

--¿Cuales son las 5 formas de la escala pentatonica?
--¿Que son los "retros" o "retrocedimientos" (las repeticiones de notas que hacen que una escala suene mas larga) y donde puedo conseguisr ejercicios sobre estos?

solo, pero tambein me gustaria tener unos ejercicios de:
--sweet piking
--retros
--veocidad
o si tambein me pueden pasar bases ritmicas se los agradeceria.


Se que es mucho lo que pido :D pero desde cuando queria hacerme con esto.
Espero sus futuras respuestas y me comprometo en ayudar y aportar en el foro en todo lo que pueda ayudar como me sea posible.

Gracias. saludos
Subir
#2 por leorichard124 el 15/10/2009
hola bienvenido, yo tampoco se mucho de este pero vamos a ver que puedo hacer ...

por lo de las pentatonicas no sera en vez de "5 formas", "5 notas" por eso es que se llama "penta"tonica.

eso de "retrocedimientos" no se que quieres decir.

y con respecto a lo ultimo te dejo esta tab para guitar pro que tiene ejercicios de sweep picking y de velocidad de Yngwie Malmsteen. (te recomiendo que empieces los ejercicios lentamente, de forma que no haya errores, y vallas aumentando la velocidad progresivamente)

Espero que te sirva! Suerte!
Subir
#3 por jordy4 el 15/10/2009
:D muchas gracias amigo estan muy buenos, aver si puedo sacarlos xD


pero tengo otra duda de la cual me acabo de acordar y lo vi en tu tap

--¿como se la ace para cambiar el tiempo en un tap de Guitar Pro?
(osea que de 120 beats pase a 150 beats y luego a 170 , se acelere)
Subir
Baneado
#4 por guitarmadrid el 15/10/2009
Aquí te adjunto una imagen con los cinco patrones de la pentatonica (en este caso las de A menor/C mayor). Espero que se vea bien.
En cuanto a lo de los "retrocedimientos" no se a que te refieres, si lo explicases un poco a lo mejor podría ayudarte.

Un saludo

290824ad73b8327a81.jpg
Subir
#5 por jordy4 el 16/10/2009
Gracias, esta muy bueno.

en cuanto a los "retros" o "retrosedimientos"

sinceramente no se que son, pero le entiendo asi segun lo que se:

son repeticienes de notas, como acer la escala, pero repetidas las notas. los retros son como ejercicios los cuales tambien se pueden emplear en canciones.
El unico retro que me se es este:


|----------------------------------------------------------|
|----------------------------------------------------------|
|----------------------------------------------------------|
|----------------------------------------------------------|
|----------------------8------8-10--8--10--12-------------|
|-8--10--12--10--12-----12--------------------------------|



|-----------------------------------------------------|
|-----------------------------------------------------|
|----------------------------------------------9------|
|----------9-------9--10--9--10--12--10--12---------|
|-10--12------12-------------------------------------|
|-----------------------------------------------------|

|-----------------------------------------------------------|
|-------------------------------10-------10--12--10--12--13|
|-----9-10--9--10--12--10--12------12----------------------|
|--12--------------------------------------------------------|
|------------------------------------------------------------|
|------------------------------------------------------------|

|--------10-----10-12--10--12--13--|
|-12-13-----13----------------------|
|------------------------------------|
|------------------------------------|
|------------------------------------|
|------------------------------------|




y asi, lo escribi todo para que se entienda mejor
¡POR FAVOR ayuda!

Gracias
Subir
Respuesta rápida

Regístrate o para poder postear en este hilo