hammer y legato

#1 por bryan86 el 23/01/2008
Que onda compañeros del foro en esta ocacion les traigo una leccion que me parece que es muy buena ya que para aquello que digan que tienen la mano pequeña y no llegan a los trastes pues esta es la oportunidad de empezar a adiestrarla jejejejejejeje en este ejercicio que lo dividi en 3 seccion yendo del nivel mas sencillo hasta el mas complicado del mismo si quieren lo hacen con double picking pero yo pienso que es mas efectivo con legato y hammer por que tenemos que tener la fuerza necesaria en la mano izquierda para poder hacer que suenen las notas aca el primer ejercicio:
-5h8h10--------------------------
--------5h8h10-------------------
---------------5h7h9p7p5---------
---------------------------------
---------------------------------
---------------------------------
---------------------------------
ahora el seguno jungando con la idea con cuerda alterna
-5h8h10--------------------------
--------------5h8h10-------------
--------5h7h9--------------------
-------------------5h7h9---------
---------------------------------
---------------------------------
---------------------------------
y el tercero que es el mero bueno jejejejejeje con la figura como me gusta tocarla a mi.
--------5h8h10p8p5----------------------------------------------
-5h8h10----------------10p8p5h8h10p8p5-------------------------------
------------------------------------------9p7p5h7h9p7p5-----------------
----------------------------------------------------------9p7p5h7h9p7p5---
----------------------------------------------------------------
----------------------------------------------------------------
----------------------------------------------------------------
espero que les guste y lo mas importante que les ayude a poder mejorar saludos si quieren mas ejercicios solo pidanlos!!!:brindis::saludo:

La guitarra es el alma de quien la tok

Subir
#2 por carlosmva el 25/01/2008
gracias muy bueno el ejercicio pero no llego
me podrias decir que dedos utilizar en el primero

yo uso segun orden indice, medio y menique pero el anular suena otra nota de arriba sin querer



si tengo una guitarra a mi lado, estoy feliz

Subir
#3 por bryan86 el 25/01/2008
Los dedos que se deben usar son los siguientes 1-2-4 si suena otra nota por alli es en donde se tiene que trabajar la limpieza de los ejercicios jejejejeje a estirar la mano!!!!! pongan respuestas aver que les parecio!!!!!!

La guitarra es el alma de quien la tok

Subir
#4 por demian intoxxxicated el 30/01/2008
pon un video a ver si puedes hacerlooo!!!

jejejeje no es cierto es broma... Gracias por los ejercicios...

http://www.myspace.com/intoxxxicatedband

Subir
Respuesta rápida

Regístrate o para poder postear en este hilo