Por favor podrian sacarme la cancion de ella de el Sr Bikini???

#1 por lobo_cazador el 04/07/2011
bueno llevo a penas unos meses tocando y me tope conesta cancion http://www.youtube.com/watch?v=PxSJ5Ea-jHA[/YOUTUBE] y queria pedir d efavor que alguien me la escriba porfa es que de de oido llevo ya casi dos semanas y solo eh podido sacar los primeros 30 segundos desde que empieza la musica pero de ahi no he podido hacer nadamas les agradeceria si alguien me la pasa o me la escribe porfa!!![YOUTUBE]http://www.youtube.com/watch?v=PxSJ5Ea-jHA[/YOUTUBE]
y queria pedir d efavor que alguien me la escriba porfa es que de de oido llevo ya casi dos semanas y solo eh podido sacar los primeros 30 segundos desde que empieza la musica pero de ahi no he podido hacer nadamas les agradeceria si alguien me la pasa o me la escribe porfa!!!
Subir
#2 por OnMercury el 08/07/2011
q onda, de que disco es la rola? me marca error en el video sube más info de la rolita o si puedes pasamela para poder echarte una mano

Rockin' in the Free World

Subir
#3 por lobo_cazador el 08/07/2011
la banda es sr bikini y el disco se llama 3 mascaras en acustico

y aqui esta la musica sin video


muchas gracias amigo
Subir
#4 por OnMercury el 09/07/2011
Sale banda, ahi va

Està buena la tonada, ahi va

Bm Em Bm A G Bm
e --2-0-2---0------2-0-2---0----5/7---7-5----5-3--5--3---2-----7-
B-------3-----0--------3----------------5------3--3--3----3----7-
G-------4--------------4----------------6------4--4--4-----4---7-

eso va dos veces. luego cambia

D Bm
e-------------5---5------5--------5-------------------------
B------------7—--7---5h7------5h7--7-5—5h7--5---5--5/7------
G---4-6-7---7---7-----------------------------7-------------

e-----5---5------5--------5---------
B----7—--7---5h7------5h7--7-5—5h7--
G---7---7---------------------------

G F#m
e--------------------------2-------9-
B---3—-—5—5/7--7-5-5--3-----2-----10-
G--4-------------------------2----11-
D-5------------------------------

e--------------------------------
B---3—-3—5—5/7--7-5-5--3-2—3h5-2-
G--4-----------------------------
D-5------------------------------

Se repite todo y luego el final

Bm
e---2-—2—-2-----7-
B----3--3--3----7-
G-----4--4--4---7-

Ojalà te sirva la tab, ah por cierto la voy a subir a la cuerda.net:D

saludos

Rockin' in the Free World

Subir
#5 por lobo_cazador el 09/07/2011
si tambien la solicite en la cuerda y tenia ya muchas solicitudes
muchas gracias amigo la busque mucho tiempo!!!!!
Subir
Respuesta rápida

Regístrate o para poder postear en este hilo