Escalas Modales Y Pentatonicas

  • 1
#1 por jorgito el 28/10/2007
ESCALAS MODALES

También llamadas MODOS GREGORIANOS, se forman comenzando por cada una de las notas de la escala mayor diatónica, obteniendo 7 escalas diferentes que las llamaremos modales.

C(do) Modo JONICO (o escala mayor)
1|-------------------------------------------------------------
2|-------------------------------------------------------------
3|--------------------------2---4---5-------------------------
4|-------------2---3---5--------------------------------------
5|----3---5----------------------------------------------------
6|-------------------------------------------------------------

D (re) Modo DORICO

1|--------------------------------------------------------
2|-------------------------------3-----------------------
3|------------------2---4---5---------------------------
4|-----2---3---5----------------------------------------
5|--5----------------------------------------------------
6|--------------------------------------------------------


E (mi) Modo FRIGIO

1|-------------------------------------------------------------
2|----------------------------3----5---------------------------
3|---------------2---4---5------------------------------------
4|--2---3---5-------------------------------------------------
5|---------------------------------------------------------
6|-------------------------------------------------------------

F (fa) Modo LIDIO

1|-------------------------------------------------------------
2|------------------------3---5---6---------------------------
3|-----------2---4---5----------------------------------------
4|--3---5------------------------------------------------------
5|-----------------------------------------------------------
6|-------------------------------------------------------------

G (sol) Modo MIXOLIDIO

1|---------------------------------3---------------------------2|--------------------3---5---6-------------------------------
3|-------2---4---5--------------------------------------------
4|---5---------------------------------------------------------
5|------------------------------------------------------------
6|-------------------------------------------------------------
A (la) Modo EOLICO

1|-----------------------------3---5---------------------------
2|----------------3---5---6-----------------------------------
3|---2---4---5--------------------------------------------
4|-----------------------------------------------------------
5|----------------------------------------------------------
6|---------------------------------------------------------

B (si) Modo LOCRIO (o escala menor antigua)

1|--------------------------3---5---7------------------------
2|-------------3---5---6--------------------------------------
3|----4---5----------------------------------------------------
4|-------------------------------------------------------------
5|-------------------------------------------------------------
6|-------------------------------------------------------------


ESCALAS PENTATONICAS

Son escalas de 5 notas. Por su estructura intervalica existen varios tipos de escalas pentatonicas. Las que les muestro son las más comunes

ESCALA PENTATONICA MAYOR
Se escribe con las alturas del modo jonico. Deriva de la escala mayor jonica.

C JONICO
1|-------------------------------------------------------------
2|------------------------------------------------------------
3|------------------------2---4--5----------------------------
4|-----------2---3---5---------------------------------------
5|--3---5-----------------------------------------------------
6|----------------------------------------------------------

Pentatonica mayor de C

1|-----------------------------------------------------------
2|-----------------------------------------------------------
3|--------------------2----5--------------------------------
4|-----------2---5--------------------------------------------
5|--3---5------------------------------------------------------
6|------------------------------------------------------------

Para sacar las demas escalas pentatonicas mayores debes acordarte esta secuencia de tonos y semitonos: TONO, TONO, TONO Y MEDIO, TONO, TONO Y MEDIO
¿Cómo hacer para sacarlas? La primera nota tiene que ser la tonica y de ahí empiesas acontar tono, tono, tono y medio, tono, tono y medio.


ESCALA PENTATONICA MENOR
Se escribe con las alturas del relativo menor, o sea, del modo eolico. A su ves deriva de esta.


A EOLICO
1|---------------------------3---5----------------------------
2|--------------3---5---6------------------------------------
3|--2---4---5------------------------------------------------
4|-----------------------------------------------------------
5|----------------------------------------------------------
6|-----------------------------------------------------------

Pentatonica menor de A

1|------------------------------------------------------------
2|-------------------------------------------------------------
3|-------------------------2-----------------------------------
4|----------------2---5----------------------------------------
5|-------3---5------------------------------------------------
6|---5--------------------------------------------------------

Para sacar las demas escalas pentatonicas menores debes acordarte esta secuencia de tonos y semitonos: TONO Y MEDIO, TONO, TONO, TONO Y MEDIO, TONO

Bueno eso es todo espero que les sirva de algo, ami me alludo mucho a improvisar
si hay algo que esta mal por favor no duden en decirme asi lo arreglamos chau suerte
Subir
#2 por kaiser guitarrist el 03/11/2007
hey hooa ke tal soy nuevo aki en el foro y tus escalas me parecen muy buenas ya las hago todas estan muy bien sale saludos desde mexico:ok:
Subir
#3 por bison el 28/06/2008
Hey Hola que tal tengo una duda amigo, en casi todos lados hablan de los modos partiendo siempre de C mayor, mi pregunta es: ¿Se puede comenzar desde otra tonica mayor y los modos que deriven de esa tonica tienen alguna alteracion, o no poseen alteracion como en el caso de C Mayor? espero se entienda la duda. Salu2.
Subir
#4 por jairoleyva el 06/07/2008
Si se puede tener la tonica que quieras. sea: C,D,E...la que quieras. Su uso depende de la cancion que toques...por el tono en que se esta se encuentre.
Subir
#5 por xxshagrathxx el 06/07/2008
Cuales recomiendas para hacer subidas sobre el traste 5 o 7 ? es que cuando improviso algo heavy no se que hacer si quiero hacer una escala como subida o bajada
Subir
#6 por Adrifersa el 25/07/2008
Muy chulo el post, si señor!!

+1

¿Quieres aprender a tocar la guitarra eléctrica? http://www.adrifersa.com
http://www.youtube.com/adrifersa

Subir
#7 por alejandroarg01 el 03/10/2008
yo tngo la misma duda...oseaa tdo bien cn los modos, eso lo entiendo, lo mismo q las figuras...pro d ahi a la aplicacion cmo seria???
xq digamos q mientras t en do mayor esta tdo bien, suenan perfecto... pro si do fuera menor? no se si se entiende....
la idea seria q alguien pueda explicar la aplicacion segun tonalidades, y acordes...mas cmo para dar una idea!

graciass....muy bueno l post!
Subir
#8 por jairoleyva el 10/01/2009
xxShagrathxx escribió:
Cuales recomiendas para hacer subidas sobre el traste 5 o 7 ? es que cuando improviso algo heavy no se que hacer si quiero hacer una escala como subida o bajada



Estudia las pentatonicas.
Subir
#9 por joshgibson el 10/01/2009
Hey muy buenas soy nuevo en esta pagina una pregunta como ago un foro yo de discucion o una duda que tenga como lo ago

saludos y gracias de antemano
buena la leccion saludos =)
Subir
#10 por JeremiaScott el 10/01/2009
:saludo: B (si) Modo LOCRIO (o escala menor antigua)

1|--------------------------3---5---7------------------------
2|-------------3---5---6--------------------------------------
3|----4---5----------------------------------------------------
4|-------------------------------------------------------------
5|-------------------------------------------------------------
6|-------------------------------------------------------------


lamento informarte que esta mal ;) el modo eolico es el modo menor antiguo ;)
---------------------------------
lo de lamento porque no se puede editar xDDDD :D

http://www.myspace.com/jeremiasoro

Subir
1
#11 por khrizpunk1992 el 27/09/2009
bueno el post, jejeje es mi primera intervencion en la pagina!
Subir
#12 por periquetzal el 23/12/2010
una pregunta.
si por ejemplo tengo la siguiente progresion de acordes, que forma una canción estilo blues-jazz:

Bb7, Eb7, Bb7, Fm7 Bb7
Eb7, Eo7, Dm7, G7
Cm7,F7,Bb7 G7, Cm7 F7

Puedo improvisar sobre la escala pentatonica menor de Bb.
¿Cómo haría para hallar la tonalidad de escala natural sobre la que tengo que tocar?
Muchas gracias
Subir
1
Respuesta rápida

Regístrate o para poder postear en este hilo