Escalas de aerosmith

#1 por abner12 el 26/10/2010
hola amigos, quisiera saber las escalas que usa aerosmith , principalmete la que usa en hole in my sould......:D
:brindis:

La música es el noumeno de la vida, mientras los músicos son los fenómenos.
Kant.

Subir
#2 por Pasando pantalla el 27/10/2010
abner12 escribió:
hola amigos, quisiera saber las escalas que usa aerosmith , principalmete la que usa en hole in my sould......:D
:brindis:


Intro: (2x)

e+-5-----5----|-7-----7----|-8-----8----|-7-----7----|
B+-6-----6----|-6-----6----|-6-----6----|-6-----6----|
G+----5-----5-|----5-----5-|----5-----5-|----5-----5-|
D+------------|------------|------------|------------|
A+------------|------------|------------|------------|
E+------------|------------|------------|------------|

Riff 1: (During verse)
|-5-----5----|-7-----7----|-8-----8----|-7-----5----|
|-6-----6----|-6-----6----|-6-----6----|-6-----6----|
|----5-----5-|----5-----5-|----5-----5-|----5-----5-|
|------------|------------|------------|------------|
|------------|------------|------------|------------|
|------------|------------|------------|------------|

|-5-----5----|-5-----5----|-3-----3----|-3-----3----|
|-5-----5----|-5-----5----|-5-----5----|-5-----5----|
|----4-----4-|----4-----4-|----4-----4-|----4-----4-|
|------------|------------|------------|------------|
|------------|------------|------------|------------|
|------------|------------|------------|------------|

Bueno, teniendo en cuenta que el solo se toca con los acordes de la intro, vemos que en los 8 primeros compases mantiene las notas DO en la 3ª cuerda y FA en la 2ª. en la 1ª cuerda toca LA, SI, DO SI.
DO es la5ª de FA, por lo tanto FAmayor es el acorde. Y es mayor porqué el LA de la 1ª cuerda esla 3ª de FA.
En los 4 últimos compases mantiene las notas SI/3ª cuerda, MI/2ª cuerda y LA, SOL en la 1ª cuerda.
SI es la 5ª de MI, por lo tanto MImenor es el acorde ya que SOL en la 1ª cuerda es la 3ª menor de MI.

Total de notas: DO, MI, FA, SOL, LA, SI.
Tocando en FA mixolidio (DO RE MI FA SOL LA SI) puedes encontrar todas las notas del solo.

http://www.guitarmonia.es/intervalos-musicales/intervalos-en-la-guitarra/
http://www.pianoaventura.com/documentos/curso_completo_de_teoria_de_la_musica.pdf
http://www.all-guitar-chords.com/guitar_scales.php
http://www.discoverguitaronline.com/

Subir
#3 por aerosmith c el 06/11/2010
creo que te has equivocado en la primera no ta esoy deacuerdo
pero creo que es asi

E/---5------5-----7-----7------8-----8------7-----5-----5------5-----5-----5---
B/---6--6--6--6--6--6--6--6--6--6--6--6--6--6--6-----6--6--6--6--6--6--6--6

--3-----3------3-----3
--6--6--6--6--6--6--6--6
TU VERCION SE PARECE A DREAM ON EN UNA PARTE

walk this way
http://acambaro-city.myminicity.es/

Subir
Respuesta rápida

Regístrate o para poder postear en este hilo