Ejercicios, Ejercicios y Más Ejercicios !!

#1 por ramirou el 30/04/2009
Aca Algunos Ejercicios para esos que los necesitan, como yo :)
Jajajaja espero que disfruten.


PD:Despues Sigo agregando








Vibrato: ~
Slide: /
Hammer On: h
Pull Of: p

Ejercicio Nº1

E|8-7-5---7-5-----5-------------------------------------
B|------8-----8-7---8-7-5-8-7-5---7-5-----5------------
G|-------------------------------7-----7-5---7-5-4-7-5-4
D|-------------------------------------------------------
A| ------------------------------------------------------
E|-------------------------------------------------------

|--------------------
|--------------------
|--5-4-----4---------
|7-----7-5---7-5-4-5~
|--------------------
|--------------------

Ejercicio Nº2
E|13-12-10----------------------------------------------
B|----------13-12-10-9-10-12-10-9----------------------
G|----------------------------------10-9---------12-10-9
D|---------------------------------------12-10-9--------
A|-------------------------------------------------------
E|-------------------------------------------------------

|----------------------------------------
|----------------------------------------
|----------------------------------------
|12-10-9-----------9-10-12-10-9-10~---
|---------12-11-12--------------------12
|----------------------------------------

http://www.guitarblog.com.ar/
ENTRA A EL MEJOR BLOG DE GUITARRA !

Subir
#2 por catman el 04/05/2009
ahi subi un paquete de tecnica con muchisimo material para cada tecnica.
sigan aportando.
+1 por la iniciativa loco
Archivos adjuntos:
Subir
1
#3 por Fernan_SX el 04/05/2009
muxas gracias por el aporte catman, llevaba tiempo buscando una recopilacion de ejercicios así,
+1

http://www.facebook.com/LosSinXtilo

Subir
#4 por Ivan el 06/05/2009
Gran aporte compi, te voy a dar un rosco :ok:

Mis videos
http://es.youtube.com/profile?user=chupao
Mi Facebook
http://www.facebook.com/ivan.blancoarevalo

Subir
#5 por pikitos el 06/05/2009
ke loko esta muy bien eso es geniral kreo ke yo tambien pondre mi granito de arena :D sale ai esta algo ke e rekopilado esta un poko rebuelto pero la intension kuenta no ?? :D:D:D:D:D
Archivos adjuntos:

pikitoscorp

Subir
1
#6 por albertstroke el 06/05/2009
Genial aportacion catman!!! ahi te va +1!!!

http://www.myspace.com/crossfirerock4

Subir
#7 por pikitos el 06/05/2009
wau mi primer punto jeje grax :D

pikitoscorp

Subir
#8 por lucille el 17/05/2009
wwwooo este post es la mano


muy weno a todos los ke coloboraron con apartes
muxas gracias :brindis:
Subir
#9 por lupitayoh el 19/05/2009
Catman escribió:
ahi subi un paquete de tecnica con muchisimo material para cada tecnica.
sigan aportando.
+1 por la iniciativa loco


muy bueno muy bueno,, gracias!!!!!!!!!!!!!!!!!!! :D :brindis:

Mi canal
http://www.youtube.com/user/lupitayoh
Mi Blog
http://lupitayoh-animerock.blogspot.com/
Mi pag favorita para ganar dinero viendo ads(anuncios)
http://www.clixsense.com/?3898145

Subir
#10 por meloco19 el 30/05/2009
muxas gracias a todos por la ayuda
Subir
Baneado
#11 por edgar_rg el 31/05/2009
Porque todos agradesen a catman?? el post es de ramirou jeje, pero no importa muy buenos aportes los de todos.

Nunca me cae mal un +1 es enserio! xDD
Mi unico amigo es la guitarra

Subir
#12 por pikitos el 31/05/2009
cierto yo tambien subi mis ejercicos jeej oigan alguien save porke no puedo abrir un nuevo hilo???:p

pikitoscorp

Subir
Respuesta rápida

Regístrate o para poder postear en este hilo