Ejercicio principiantes-intermedios "Escorpion"

#13 por asilvestrado el 25/12/2009
Que bueno. Aunque por el nombre me esperaba algo mas, nuse. Parece que escorpion suena a chungo chungo xD No por eso lo descarto eh, ahora mismo voi a ver que tal sale. Gracias por el aporte ^^
Subir
#14 por roberto_risco el 07/01/2010
Muchas gracias por el ejercicio. Poco a poco espero ir mejorando con ayudas como la tuya.
Subir
#15 por alexdark00 el 04/02/2010
tengo una duda con este tab es de la parte inicial del primer solo de mr crowley tengo problemas para digitarlo mas rapido mi problema es con la pua .. no se exactamente si darle alternada o con la pua toda para abajo las 3 primeras notas ..espero me ayuden de todas maneras gracias..
|------10----------10----------10----------10-----10-------
|----10--13-10---10--13-10---10--13-10---10--13-10---------
|-12^---------12^---------12^---------12^------------------
|----------------------------------------------------------
|----------------------------------------------------------
|----------------------------------------------------------
Subir
#16 por ironworker el 07/03/2010
Bueno, muy bueno. Me ha servido para empezar a darle caña al meñique, Que se negaba a colaborar.
Y como novato que soy me viene de coña ver por video.

Salud
Subir
#17 por skübidú el 23/05/2010
Muchas gracias por ponerlo de forma tan clara, con vídeo y demás, sin duda me está ayudando con el meñique, al igual que más de uno por lo que veo.:D

Saludos!!
Subir
#18 por gar92 el 23/05/2010
alexdark00 escribió:
tengo una duda con este tab es de la parte inicial del primer solo de mr crowley tengo problemas para digitarlo mas rapido mi problema es con la pua .. no se exactamente si darle alternada o con la pua toda para abajo las 3 primeras notas ..espero me ayuden de todas maneras gracias..
|------10----------10----------10----------10-----10-------
|----10--13-10---10--13-10---10--13-10---10--13-10---------
|-12^---------12^---------12^---------12^------------------
|----------------------------------------------------------
|----------------------------------------------------------
|----------------------------------------------------------


yo te recomendaria hacer un barrido en las tres primeras notas y luego en las dos siguientes usar pua alterna.

vamos es como lo haria yo

saludos:brindis:

``hay 10 tipos de personas, las que saben binario y las que no´´

Subir
#19 por agc1495 el 23/05/2010
gracias por el aporte! :ok:
Subir
#20 por davr el 23/05/2010
alexdark00 escribió:
tengo una duda con este tab es de la parte inicial del primer solo de mr crowley tengo problemas para digitarlo mas rapido mi problema es con la pua .. no se exactamente si darle alternada o con la pua toda para abajo las 3 primeras notas ..espero me ayuden de todas maneras gracias..
|------10----------10----------10----------10-----10-------
|----10--13-10---10--13-10---10--13-10---10--13-10---------
|-12^---------12^---------12^---------12^------------------
|----------------------------------------------------------
|----------------------------------------------------------
|----------------------------------------------------------


Yo lo que hago es las 2 primeras notas hacia abajo, la tercera hacia arriba, y la cuarta hacia abajo y hago un pull of hasta la quinta nota

"Jesus camina sobre las aguas, Chuck Norris camina sobre Jesus"

Subir
#21 por adolfguitar el 21/07/2010
Hola a todos soy nuevo en el asunto .. pero saben que hace unos dia baje el amplitube 3 cra...... yo se que no es el tema pero quiero compartir algo con uds...luego de aprender a usarlo me dieron ganas de tener amplifender lo baje tambien y con su medicina .. logico ..pero o usaba uno u el otro son dos programas por separados ...cual es el asunto que instruciando en los programas cree un hibrido, como es eso? .. bueno ahora en un solo programa tengo los sonidos de fender y el aplitube 3 y se pueden mesclar y guardar presets y todo ..nose como bajarlo aqui pero si alguin quiere saver como se hace y usarlo mi correo es [email]adolfguitar@hotmail.com[/email] saludos
Subir
#22 por Mejunje el 22/07/2010
Gracias por el ejercicio... a mover los dátiles!!!

"Hablar de música es como bailar Arquitectura" - Frank Zappa.
http://www.urbankirkos.com/ (Nueva web de camisetas)

Subir
#23 por vb72 el 04/09/2010
Gracias por el aporte, un buen fraseo para estirar el pequeño!!!
Subir
#24 por damiblack el 06/09/2010
se ve que es un bonito ejercicio para practicar para todos los públicos

http://www.myspace.com/bentrai
http://huecox.blogspot.com

Subir
Respuesta rápida

Regístrate o para poder postear en este hilo