Ejercicio fuerza+velocidad+hammeron+pull off+memorizacion de escalas...PARA NEOFITOS

#1 por ermetro el 02/09/2007
Eeeeeeeeee ke pasa gente.
Este ejercicio es de mi gran ex-profe de guitarra Sergio P. Díaz y me ha sido de gran ayuda, intentare explicarlo lo mejor posible ya que no tengo conocimientos musicales muy extensos.

La mayoria de escalas mas usadas tienen 3 notas por posicion y cuerda, si observamos estas notas por trastes nos encontramos 3 dibujos esenciales: (cojamos el traste 5, ya ke es un ejercicio cromático y no es necesario seguir ninguna escala al principio)
A: 5-6-8 (correcta ejecucion tocar con los dedos 1, 2 y 4)
B: 5-7-8(dedos 1, 3 y 4)
C: 5-7-9(dedos 1, 2 y 4)

Pues bien el ejercicio consiste en crear patrones uniendo estas posiciones, asi tendriamos las siguientes progresiones.
A+B5-6-8-10
---------------------------------------------------------5-6-8
---------------------------------------------------5-6-8------
-------------------------------5-6-8-------6-8-10------------
-------------------------5-6-8------6-8-10-------------------
------5-6-8-------6-8-10-------------------------------------
5-6-8------6-8-10--------------------------------------------

--------6-8-10------10-8-6-------8-6-5----------------
6-8-10---------------------10-8-6------8-6-5---etc...-
--------------------------------------------------------
--------------------------------------------------------
--------------------------------------------------------
--------------------------------------------------------

lo practicamos como todo ejercicio, primero lento, posicionando bien los dedos para no coger malos vicios de ejecución y pococ a poco mas rapido, inestimable las ayudas de los metrónomos ke podeis encontrar por internet.

Siguiendo el mismo modelo de repeticiones dobles tendriamos las siguientes combinaciones.
B+A5-7-8-10
------5-7-8-------7-8-10----10-8-7-------8-7-5----------
5-7-8------7-8-10------------------10-8-7------8-7-5----

IMPORTANTE HACERLO POR TODAS LAS CUERDAS Y PROBANDO EN DISTINTOS TRASTES
A+C5-6-8-10
C+A5-7-9-10
C+C5-7-9-11(en esta posicion te duelen un poco bastante los dedos)

Una vez domines las posiciones, pues consigue hacerlas en forma de ligados(solo un toque de pua por cuerda) tanto de grave a agudo como de agudo a grave

Tambien puedes realizar el ejercicio siguiendo un patron musical(asi memorizas la escala mas facilmente)ejemplo, RE Mayor con el dibujo A
------------------------------8-9-11-----
------------------------6-7-9------------
------------------5-6-8------------------
------------3-4-6------------------------
------3-4-6------------------------------
1-2-4------------------------------------
(creo ke esta bien la escala, lo e echo a la ligera)

Bueno y eso es todo, espero aberme expresado bien y ke os sirva de tanta ayuda como me ha servido a mi.
Nos vemos con las orejas.

Laney y Cort dominarán el mundo!!!
http://www.kaso-zerrao.es.kz

Subir
#2 por advent el 02/09/2007
Muchas gracias por el ejercicio.


P´alla te va un +1

Un saludo!!!

Hello hello, adios adios...y asi sucesivamente.

Subir
#3 por densha_otoko el 02/09/2007
Mañana mismo le dedico unas horas xd. Y a ti un puntito
Subir
#4 por dikon86 el 02/09/2007
jejejej muy bien los ejercicios para calentar y eso, ya me los he mirado y son sencillitos pero me han gustado bastante porque son muy entretenidos :) sobre todo el 1º y el 3º pero subiendo hacia arriba tambien jeje. ;)
Subir
#5 por dikon86 el 02/09/2007
Bueno ahi va una escalita que me enseño una vez un colega mio (que toca que te cagas) es una escalita mora y esta mu guapa!
a ver que tal os va ;)

----------------------------5-6-9-6-5------------------------
----------------------5-6-8----------8-6-5------------------
-----------------6-7-----------------------7-6---------------
-----------5-7-8-------------------------------8-7-5---------
-----5-7-8-------------------------------------------8-7-5---
5-6-9----------------------------------------------------9-6-5

Espero que os guste!
Subir
#6 por dikon86 el 02/09/2007
Y ahi va una que me enseño mi profe de musica hace ya una pila de tiempo, la verda esque casi nunca la toco pero se la recomiendo a gente que quiera practicar moviendose por el mastil.

-----------------------------------10-12-10---------------
--------------------------8-10-12-----------12-10-8----
----------------------7-9----------------------------9-7----
----------------5-7-9-----------------------------------9-7-5
-----------5-7-----------------------------------------------
0-1-3-5-7----------------------------------------------------

-----------------
-----------------
-----------------
-----------------
7-5--------------
----7-5-3-1-0----

Les recomiendo tambien que empiecen por el traste 12 de la 1ª cuerdas y suban y luego bajen otra vez has ella, asi variaran un poco el ejercico.

Bueno suerte, a practicar y espero que os hayan gustado, si no las conociais.
Subir
#7 por jgoicochea el 02/09/2007
son ejercicios muy buenos tio, muy bueno.

MySpace
http://www.myspace.com/jorgegoicocheav
Mi canal Youtube
http://www.youtube.com/GeorgeGuitarPer

Subir
#8 por kamikafre el 02/09/2007
Con tu permiso lo voy a pasar a guitar pro, ok??? asi está mas facil para todos... (incluido yo :D )

es un muy buen ejercicio para coger fuerza y velocidad asi como sincronizacion con mano derecha.... a ver que soy capaz de hacer con el guitar pro....

http://img180.imageshack.us/img180/3535/kami3copydh0.jpg

Subir
#9 por ermetro el 02/09/2007
si mejor ke lo pases, la verda eske no se me a ocurrido para nada acerlo en el guitar pro xD

Laney y Cort dominarán el mundo!!!
http://www.kaso-zerrao.es.kz

Subir
#10 por kamikafre el 02/09/2007
eRMetro escribió:
Eeeeeeeeee ke pasa gente.
Este ejercicio es de mi gran ex-profe de guitarra Sergio P. Díaz y me ha sido de gran ayuda, intentare explicarlo lo mejor posible ya que no tengo conocimientos musicales muy extensos.

La mayoria de escalas mas usadas tienen 3 notas por posicion y cuerda, si observamos estas notas por trastes nos encontramos 3 dibujos esenciales: (cojamos el traste 5, ya ke es un ejercicio cromático y no es necesario seguir ninguna escala al principio)
A: 5-6-8 (correcta ejecucion tocar con los dedos 1, 2 y 4)
B: 5-7-8(dedos 1, 3 y 4)
C: 5-7-9(dedos 1, 2 y 4)

Pues bien el ejercicio consiste en crear patrones uniendo estas posiciones, asi tendriamos las siguientes progresiones.
A+B5-6-8-10
---------------------------------------------------------5-6-8
---------------------------------------------------5-6-8------
-------------------------------5-6-8-------6-8-10------------
-------------------------5-6-8-------------------------------------
5-6-8------6-8-10------6-8-10-------------------
------5-6-8-------6-8-10--------------------------------------------

--------6-8-10------10-8-6-------8-6-5----------------
6-8-10---------------------10-8-6------8-6-5---etc...-
--------------------------------------------------------
--------------------------------------------------------
--------------------------------------------------------
--------------------------------------------------------

lo practicamos como todo ejercicio, primero lento, posicionando bien los dedos para no coger malos vicios de ejecución y pococ a poco mas rapido, inestimable las ayudas de los metrónomos ke podeis encontrar por internet.

Siguiendo el mismo modelo de repeticiones dobles tendriamos las siguientes combinaciones.
B+A5-7-8-10
------5-7-8-------7-8-10----10-8-7-------8-7-5----------
5-7-8------7-8-10------------------10-8-7------8-7-5----

IMPORTANTE HACERLO POR TODAS LAS CUERDAS Y PROBANDO EN DISTINTOS TRASTES
A+C5-6-8-10
C+A5-7-9-10
C+C5-7-9-11(en esta posicion te duelen un poco bastante los dedos)

Una vez domines las posiciones, pues consigue hacerlas en forma de ligados(solo un toque de pua por cuerda) tanto de grave a agudo como de agudo a grave

Tambien puedes realizar el ejercicio siguiendo un patron musical(asi memorizas la escala mas facilmente)ejemplo, RE Mayor con el dibujo A
------------------------------8-9-11-----
------------------------6-7-9------------
------------------5-6-8------------------
------------3-4-6------------------------
------3-4-6------------------------------
1-2-4------------------------------------
(creo ke esta bien la escala, lo e echo a la ligera)

Bueno y eso es todo, espero aberme expresado bien y ke os sirva de tanta ayuda como me ha servido a mi.
Nos vemos con las orejas.


Hay algo que esta mal en la primera progresion,
---------------------------------------
---------------------------------------
---------------------------------------
------------------5-6-8-
-----------6-8-10------
----6-8-10----------------------

Esa parte la nota 10 y la 5 es la misma, con lo que al hacer esa escala, repites nota y en el sonido es un poco raro.... Es asi?????

Ya casi tengo el guitar pro.... ahora po pongo aqui y te lo pones en el primer mensaje...

http://img180.imageshack.us/img180/3535/kami3copydh0.jpg

Subir
#11 por kamikafre el 02/09/2007
Pues aqui está el archivito de guitar pro.... No soy ningun experto en guitar pro y ademas es el segundo cacharro de estos que hago asi que no me pidais mucho mas... :D

http://img180.imageshack.us/img180/3535/kami3copydh0.jpg

Subir
#12 por ermetro el 02/09/2007
no puedoa brir el archivo, me dice ke tengo ke actualizar el guitar pro, y tengo la version 5

Laney y Cort dominarán el mundo!!!
http://www.kaso-zerrao.es.kz

Subir
Respuesta rápida

Regístrate o para poder postear en este hilo