Duda sweep picking

#1 por doroliva el 17/03/2010
No se si esto va aca

Hola , estuve viendo unos ejersicios de el libro de j.Petrucci rock dicipline
un ejersicio de sweep picking es asi :

A ---------10----------10----------------
B -----------------------------------
G ------9-----------8------------------
D ----8-----------9--------------------
A -----------------------------------
E -7-----------7-----------------------

bueno la duda es en la mano derecha:
Para tocar eso hago sweep picking salteando las cuerdas A Y B
o como es ?

"Si mi novia muere, no lloraré, violare el cadáver "
Euronymous

Subir
Baneado
#2 por edgar_rg el 17/03/2010
Eso no es sweep picking, talves lo que debes de hacer es dar solo down-strokes si estas descendiendo, y upstrokes cuando ascendas, aunque no veo ningun beneficio para la tecnica de pua mas que para estirar los dedos, digo esto porque yo tambien vi el mismo ejercicio pero era para estirar los dedos y se iba abriendo mas el acorde hasta que llegaba a esto

---------11-----
--------------
-------9-------
-----7---------
--------------
--5------------

Pero no era para sweep picking, como dije era para estirar mas los dedos.

Nunca me cae mal un +1 es enserio! xDD
Mi unico amigo es la guitarra

Subir
#3 por doroliva el 18/03/2010
bueno
me sirvio XD
gracias

"Si mi novia muere, no lloraré, violare el cadáver "
Euronymous

Subir
#4 por asphix el 18/03/2010
En efecto no es un ejercicio de sweep, es para independizar los dedos y los siguientes ejercicios lo complementan para hacer estiramientos...

-----------------------------------------------------
La falta de talento se puede compensar con disciplina...

Subir
Respuesta rápida

Regístrate o para poder postear en este hilo