Duda solo de The Trooper

--295071--
#1 por --295071-- el 09/10/2010
He aqui mi duda en la primera parte del solo aparece algo asi


B------------12--15-------------
G----14b16---------------------- y asi muchas veces


mi duda es esta despues esta parte se empieza a acelerar, cuando se acelera los ¿bends siguen o no hay bend? y sería

B--------12--15------------
G----14---------------------

Aqui esta la cancion


es del 2:19 al 2:25
http://www.youtube.com/watch?v=d3Ak78uo0UA[/YOUTUBE][YOUTUBE]http://www.youtube.com/watch?v=d3Ak78uo0UA[/YOUTUBE]
Subir
#2 por Jaimito Pagina el 09/10/2010
|-------------------------------------|
|--12h15-------12h15------12h15-|
|---------14b--------14b-----------|
|------------------------------------|
|------------------------------------|
|------------------------------------|

asi la tengo en la mia y creo que no lleva los bends muy marcados, solo hay que subirla poco, aparte de que es haciendolo muy rapido

Mi canal:
http://www.youtube.com/VnG97

Subir
#3 por metalegcs el 10/10/2010
Si hay bending y sigue acelerando
Subir
Respuesta rápida

Regístrate o para poder postear en este hilo