duda final de arpegios...

#1 por cesar050 el 09/05/2010
Hola, esta es mi ultima duda respecto a hacer arpegios con los dedos. Disculpen que sea un poco extensa la duda pero es o q me faltaria saber.
Agradeceria bastante si alguien me puede decir q dedos debo usar para tocar los ejemplos de abajo (no es un solo arpegio todo, sino son casos independientes separados por la rayita por siacaso, asi q tomen cada uno como independiente)
Muchas gracias!


E|-------0-|----------0-|---------0-|---------------0-|--0----------|
B|-----0---|--------0---|-----0-----|-----------0-----|-0---0-------|
G|---------|------------|-------0---|-------0-----0---|----0---0----|
D|---0-----|---0--------|---0-------|---0-----0-------|-------0---0-|
A|--0------|-----0------|-----------|-----0-----------|----------0--|
E|-0-------|-0----------|-0---------|-0---------------|-------------|



E|---0-0-0-0-----------|------------------0-0-0----------------|
B|-----0-----0-0-------|----------------0-------0-0------------|
G|---------0-----0-0---|------------0-0-------------0----------|
D|-------------0-----0-|-----------0------------------0-0------|
A|-----------------0---|-------0-0------------------------0-0--|
E|-0-------------------|-0-0-0---------------------------------|



E|-----------0-|-0---0-0---0-0-0----|
B|-------0-----|--0-0---0-0-----0---|
G|---------0---|---0-----0-------0--|
D|-----0-------|--------------------|
A|-------------|--------------------|
E|-0-0---------|--------------------|
Subir
#2 por hilonegro el 10/05/2010
No hay una regla, pero lo clasico seria anular 1ra: cuerda, medio: 2da cuerda, indice: 3ra cuerda y pulgar para 4 5 y 6ta, si te acostumbras a esta regla es lo mas apropiado aunque no es lo definitivo...

I know I was born and I know that I'll die
The in between is mine...

Subir
#3 por gote el 10/05/2010
Hola

Todo depende del contexto de la obra, hay dedos que tiene más fuerza que otros, o que hace falta apoyar un dedo más que otro,o apagar cierta cuerda, dependiendo de la armonia, pero bueno a vamos a ver...

E|-------0-a|----------0-a|----------0-a-|
B|-----0-m-|--------0-m--|-----0-m-----|
G|---------|--------------|--------0-i---|
D|---0-p---|---0-i--------|---0-i--------|
A|--0-p----|-----0-p-----|--------------|
E|-0-p-----|-0-p---------|-0-p---------|

E|---------------0-a-|--0-a-----------|
B|-----------0-m----|-0-m--0-m------|
G|-------0-i----0-i---|----0-i--0-i-----|
D|---0-i----0-p------|-------0-p--0-i--|
A|-----0-p----------|----------0-p----|
E|-0-p--------------|-----------------|



E|---0-m-0-m-0-a-0-m---------------|
B|--------0-i---------0-i-0-m---------|
G|-----------------0-p-----0-i-0-m---|
D|-----------------------0-p-----0-i--|
A|-----------------------------0-p---|
E|-0-p-------------------------------|


E|------------------------0-m-0-i-0-m----------------|
B|----------------------0-i----------0i-0m------------|
G|------------------0i-0m---------------0i------------|
D|----------------0-m--------------------0m-0i-------|
A|----------0-m-0-i----------------------------0m-0i-|
E|-0-i-0-m-0-i----------------------------------------|


E|-------------0-a|-0-m----0-m-0-a------0-m-0-a-0-m-------|
B|---------0-m----|--0-i--0-i------0-m--0-i----------0-i------|
G|-----------0-i---|----0-p-----------0-p--------------0-p---|
D|-------0-p------|------------------------------------------|
A|----------------|------------------------------------------|
E|-0-p-0-p--------|------------------------------------------|



Como te comente, todo depende de la obra, pero a mi modo de ver esa es una digitación, logica...

:saludo:
Subir
#4 por cesar050 el 13/05/2010
muchas gracias a los 2 por sus aportes, em han servido mucho. gracias.
Subir
Respuesta rápida

Regístrate o para poder postear en este hilo