Duda con Blackened

#1 por N.C. el 18/07/2011
De a poco quiero tocar metal y elegí esta canción, el riff principal, cuando arranca, qué movimiento de púa conviene hacer?

Alguien escribió:
----------------------------------|
----------------------------------|
--3-------------------------------|
--3------------------2------------|
--1--------2--3-3----2------------|
-----2--3---------1--0-------(0)--|


Y qué digitación?
Yo el A# lo hago con el 1, el F# y G con 2 y 3, lo mismo abajo, el Fa con el dedo 1 y el mi en quinta con el dedo 2, pero por alguna razón no le agarro la velocidad
Subir
#2 por mechanixx el 18/07/2011
este riff yo lo toco con pua alterna arriva/abajo y para la velocidad solo es practica


e|--------------------------------------------------------------|
B|--------------------------------------------------------------|
G|----------------------------------------------3---------------|
D|-------------------------8--------------------3-------------2-|
A|---7---7---7-8-7---7---7---7---7---7---7-8-7--1-------2-2---2-|
E|-0---0---0-------0---0--(7)--0---0---0----------0-2-3-----3-0-|
Subir
#3 por N.C. el 18/07/2011
Pero yo dejé la parte del riff que me cuesta :P
Subir
#4 por agarrameltrozo el 18/07/2011
hay un tresillo osea debes hacer un cabalgado en el 2-3-3 de la cuerda A ...y despues continuar con el downpick
Subir
#5 por mechanixx el 18/07/2011
es verdad se tiene k aser un galop es esa parte
Subir
#6 por agarrameltrozo el 18/07/2011
si tocas la cancion digitando la pua le quitas peso... es una caracteristica de metallica tocar sus canciones con downpick
Subir
#7 por N.C. el 18/07/2011
Claro, mi costumbre al alternate picking me mata
Subir
Respuesta rápida

Regístrate o para poder postear en este hilo