Diario de práctica de Yuuki

#1 por yuuki neko el 27/09/2010
Bien, no me deja postearlo en el sub-foro...
Si alguien puede moverlo al sub-foro por favor...

27 de Septiembre

13:50 PM

Dedico 15 minutos a calentar mi guitarra clásica...

Y vamos con la canción que iba practicando (In my head, de Queen of the stone age, sacado de por aqui)

14:05 PM
Vamos allá!

Tiempo dedicado: 13 minutos.

Comeré y sigo más tarde.


15:15 PM

Ya vuelvo a practicar. Me saqué la partitura por la impresora y voy de nuevo a ensayar.

Tiempo dedicado: 1 hora

Tiempo total de hoy: 1 hora y 28 minutos
Subir
#2 por bon4ever el 27/09/2010
Los amplis a válvulas hay que calentarlos antes de usarlos pero, ¿como calientas una guitarra clásica?

http://www.myspace.com/anabasa

Subir
#3 por Oscar SJ el 28/09/2010
Muy bien, muy buen tema. Sigue asi!!!!:aplausos:
Subir
#4 por yuuki neko el 28/09/2010
Alguien escribió:
¿como calientas una guitarra clásica?

Calentarla en sentido literal.
La tengo desde hace muy poco,y aun tengo que ir acostumbrándome a ella.

28 de Septiembre del 2010

18:41 PM

Bien, he enfermado... Por eso comencé tarde.
Despues de mis ejercicios...

18:57 PM

Haré otros ejercicios nuevos.

Probaré con la escala rigoriana:

alternate pick all of it
|----------------------------------------------------------------10--------11-12-13-22-----------------|
|------------------------------------------------9-------10-11-12--10-12-14----------------------------|
|o----------------------5-----------7------8-9-10-9-11-13---------------------------------------------o|
|o----------5------4-5-6-------6-7-8-7-9-11-----------------------------------------------------------o|
|------4-5-6--3-5-7-------5-7-9------------------------------------------------------------------------|
|-3-5-7------------------------------------------------------------------------------------------------|

|---22--21--20-------|-now--time-for-the-extended-version-(after-warming-up)---------------------------|
|-16--15--14---------|---------------------------------------------------------------------------------|
|-------------14--16-|---------------------------------------------------------------------------------|
|---------------15---|---------------------------------------------------------------------------------|
|--------------------|---------------------------------------------------------------------------------|
|--------------------|---------------------------------------------------------------------------------|
________________________________________________________________________________________________________

|---------------------------------------2---------------------11h13p11-----------|
|-----------------2--------------------3-3------------------10--------10---------|
|----------------3-3--------------5---4---4------------7---9------------9--------|
|-----------5---4---4--------4-5-6-5-6-----6------6-7-8-7-8--------------8-------|
|------4-5-6-5-6-----6--3-5-7----------------5-7-9-------------------------------|
|-3-5-7--------------------------------------------------------------------------|

|--------------------12h14h16p14p12---------------------11-----13-15-18-22---|
|-------------9----11--------------11-----------10-11-12--11-12--------------|
|-------8-9-10-9-10------------------10--9-11-13-----------------------------|
|-7-9-11---------------------------------------------------------------------|
|----------------------------------------------------------------------------|
|----------------------------------------------------------------------------|

|-10h12h14----------------10h12h14----------------12h14h16----------------14h16h18---------------------|
|---------10h12h14----------------10h12h14----------------12h14h16----------------14h16h18-------------|
|-----------------10h12h14----------------10h12h14----------------12h14h16----------------14h16h18-----|
|------------------------------------------------------------------------------------------------------|
|------------------------------------------------------------------------------------------------------|
|------------------------------------------------------------------------------------------------------|

|-----------------18h20h22---22*---21*---20*------------------------20*-21*-22b*******r----------------|
|---------16h18h20--------------16*---15*---14*------------------19*-----------------------------------|
|-14h16h18--------------------------------------14*---16*-17*-18*--------------------------------------|
|--------------------------------------------------15*------------------------------------5h7h9--------|
|----------------------------------------------------------------------------------------------5h7h9-0-|
|----------------------------------------------------------------------------------------0-----------5-|
Subir
Respuesta rápida

Regístrate o para poder postear en este hilo