¿Qué dedo usar para este arpeggio de 6 cuerdas?

#1 por SR7 el 22/07/2013
Ya hace bastante tiempo que empecé con el sweep picking y ya he cambiado mi manera de hacerlo varias veces, cuando por fin encontré una con la que me siento cómodo me entró otra duda. Poniendo de ejemplo este arpeggio de La mayor, he visto que muchos guitarrista usan el dedo anular para tocar la tercera y cuarta nota, las dos que de tocan en el 7mo traste (Mi y La), mientras que yo uso el meñique para subir (ir a las cuerdas más agudas) y el dedo anular para bajar. ¿Qué dedo me conviene usar? También se que muchos tocan este mismo arpeggio con la segunda nota en la 6ta cuerda pero a mi me gusta más esta forma.

e|-----------------5h9------|
B|--------------5------------|
G|-----------6---------------|
D|---------7-----------------|
A|---4h7--------------------|
E|-5--------------------------|

También tengo la misma duda en la variante menor de este arpeggio..

e|-----------------5h8----|
B|--------------5----------|
G|-----------5-------------|
D|---------7---------------|
A|---3h7------------------|
E|-5------------------------|

Saludos y gracias!

http://www.youtube.com/SR7s
https://soundcloud.com/SR7s

Subir
#2 por Andrew85 el 22/07/2013
Yo las haría de esta manera:

e|-----------------------------5h9------|
B|------------------------5--------------|
G|-------------------6-------------------|
D|--------------7------------------------|
A|------4h7-----------------------------|
E|-5--------------------------------------|
....2....1..3...3...2...1....1..4



e|---------------------------------------5h8----|
B|---------------------------------5-------------|
G|---------------------------5-------------------|
D|---------------------7-------------------------|
A|------------3h7------------------------------|
E|-----5----------------------------------------|
........2.....1..4....4....1....1....1..4

El presente mensaje no es más que una opinión personal que no constituye, bajo ninguna circunstancia, una verdad absoluta.

Subir
#3 por usuario18 el 22/07/2013
Yo uso la otra forma,la de tocar las cuerdas 2,3 y 4 con el dedo anular. Aunque depende del contexto...dependiendo de la posición de la mano antes y después de ese arpeggio...si fuera tú,practicaría ambas formas.
Subir
#4 por SR7 el 25/07/2013
Gracias por las respuestas, creo que voy a seguir haciéndolo con el meñique por ahora

http://www.youtube.com/SR7s
https://soundcloud.com/SR7s

Subir
Respuesta rápida

Regístrate o para poder postear en este hilo