Dar clases a niños, ayuda.

  • 2
mod
#13 por castleotto el 10/10/2012
no se si serán canciones que motiven mucho a los niños, pero las del Stage 1 de justin guitar usan solo tres acordes

Sigo pensando que es mejor ver que canciones les gustan a ellos, pero esas pueden ser un comienzo

Mi diario de practicas

Subir
#14 por duby_doo el 10/10/2012
Que tal
La pantera rosa
Cumpleaños feliz
Navidad (ya que se acercan las fechas)
O Mario Bros¿?

Intro

e|-0-0---0-----0---3----|
B|?----------1----------|
G|--------------------0-|
D|----------------------|
A|----------------------|
E|----------------------|


Parte 1

e|-------------------------0-3-5--1-3-0---------|
B|-1-----------0--------------------------1-3-0-|
G|----0-----2-----3-2--0------------------------|x2
D|-------2--------------------------------------|
A|----------------------------------------------|
E|----------------------------------------------|


Parte 2

e|-3-2-1----0----------------3-2-1----0--8--8-8|
B|-------4---------1----1-3--------4-----------|
G|-------------1-2----2------------------------|
D|---------------------------------------------|
A|---------------------------------------------|
E|---------------------------------------------|

e|-3-2-1----0----------------4---3---1---------|
B|-------4---------1----1-3--------------------|
G|-------------1-2----2------------------------|
D|---------------------------------------------|
A|---------------------------------------------|
E|---------------------------------------------|


Parte 3

e|--------------0--------------------0------------------0--------|
B|--1-1--1--1-3---1------1-1--1--1-3--------1-1--1--1-3---1------|
G|------------------2-0-------------------------------------2-0--|
D|---------------------------------------------------------------|
A|---------------------------------------------------------------|
E|---------------------------------------------------------------|
e|-0-0---0-----0---3----|
B|?----------1----------|
G|--------------------0-|
D|----------------------|
A|----------------------|
E|----------------------|
Subir
#15 por chmurka el 17/10/2012
Hola.Un ninio de 8-10 años esta capaz de comerse cualquier plato, todo depende de como lo sirves.
1.Tiene que ser divertido
2.El niño tiene ver que progresa, sobre todo al principio
3.Toca con ellos para que sientan placer de tocar con otra persona.
Tienes que ser mas psychologo que maestro con ellos cosa que es muy dyficil,
Si lo haces bien te aseguro que tus alumnos ban practicar varias horas diarias.Tambien les tienes explicar que aprender a tocar es un proceso muy largo.Te digo que no hay nada mejor que ver tu alumno actuando delante publico.
Subir
#16 por fernando s el 17/10/2012
Mis hijas tienen están entrando en esa edad y les encantan las canciones de las series de Disney Channel, La Gira, Lemonade Mouth, etc. Si tus alumnos son varones igual tienes que buscar otra cosa.

Como no sabía que era imposible... lo hizo.

Subir
#17 por fernando s el 17/10/2012
Mira las canciones de la serie Phineas y Ferb

Como no sabía que era imposible... lo hizo.

Subir
Respuesta rápida

Regístrate o para poder postear en este hilo